Oops, an error
Loading. Please wait.

We Are Your Enemy Tab

ver2
ver2

Whole song

More versions @911Tabs.com
995 views 1 this week
no commentswrite comment
1 2 3 4 5
excellent!
x 2
Autoscroll
+/-
esc
set tempo
stop
Contributor
WARNING: You are trying to view
                                    content from Ultimate-Guitar.com
                                    in an unauthorized application,
                                    which is prohibited.

                                    Please use an official Ultimate
                                    Guitar Tabs application for iPhone,
                                    iPad or Android to access legitimate
                                    chords, guitar, bass, and drum tabs
                                    from Ultimate-Guitar.com database.

                                    Type "ultimate guitar tabs" in Apple
                                    App Store's or Android Market's
                                    search to find the application.
Tuning is C# [C#,F#,B,e,g#,c#]
DYING FETUS- WE ARE YOUR ENEMY

[Intro (x2) /quick!!!/]
|-----------------------------------------|-
|-----------------------------------------|-
|-11-11-9-8-----------11-11-9-8-----------|-
|-----------10-10-8-7-----------10-10-8-7-|-
|-----------------------------------------|-
|-----------------------------------------|-
| .  .  . . .  .  . . .  .  . . .  .  . . |
|-----------------------------------------|-
|-----------------------------------------|-
|-----------------------------------------|-
|-11-11-9-8-----------11-11-9-8-----------|-
|-----------10-10-8-7-----------10-10-8-7-|-
|-----------------------------------------|-
  .  .  . . .  .  . . .  .  . . .  .  . .

-|-------------------------------------|
-|-------------------------------------|
-|-11-11-9-8---------------------------|
-|-----------10-10-8-7-4-4-2-1---------|
-|-----------------------------3-3-1-0-|
-|-------------------------------------|
 | .  .  . . .  .  . . . . . . . . . . |
-|-------------------------------------|
-|-------------------------------------|
-|-------------------------------------|
-|-11-11-9-8---------------------------|
-|-----------10-10-8-7-4-4-2-1---------|
-|-----------------------------3-3-1-0-|
   .  .  . . .  .  . . . . . . . . . .

[Riff 1]
|-----------------------------|--------------------------------|-
|-----------------------------|--------------------------------|-
|-------------------^--^--^---|--------------------------------|-
|----------------7~-5~-4~-5~--|--------------------------------|-
|-5---------------------------|-5--------------2-5-2-5-1-4-1-4-|-
|-3--0-0-1-1-2-2--------------|-3--0-0-1-1-2-2-----------------|-
       . . . . . .                 . . . . . . . . . . . . . .

-|----------------------------|-------------------------------|
-|----------------------------|-------------------------------|
-|-------------------^--^--^--|-------------------------------|
-|----------------7~-5~-4~-5~-|-------------------------------|
-|-5--------------------------|-3-3-3-3-3-3-3-3-4-4-4-4-3--4--|
-|-3--0-0-1-1-2-2-------------|-5-5-5-5-5-5-5-5-6-6-6-6-5--6--|
      . . . . . .               . . . . . . . . . . . . .  .

[Riff 2]
|----------------------------------------------------------------|-
|----------------------------------------------------------------|-
|----------------------------------------------------------------|-
|----------------------------------------------------------------|-
|-5---------------7-7-5-5-4/5-5-5----------------2-5-2-5-1-4-1-4-|-
|-3--000-111-222--5-5-3-3-2/3-3-3--0-0-0-000-000-----------------|-
|    ... ... ...                   . . . ... ...                 |
|----------------------------------------------------------------|-
|----------------------------------------------------------------|-
|----------------------------------------------------------------|-
|----------------------------------------------------------------|-
|-5--------------------------------------------------------------|-
|-3--------------------------------------------------------------|-
  .

-|-----------------------------------------------------------------|
-|-----------------------------------------------------------------|
-|-----------------------------------------------------------------|
-|-----------------------------------------------------------------|
-|-5---------------7-7-5-5-4/5-5-5-777-7-7-777-7-7-8-8-8-8-8-8-8-8-|
-|-3--000-111-222--5-5-3-3-2/3-3-3-555-5-5-555-5-5-6-6-6-6-6-6-6-6-|
 |    ... ... ...                                                  |
-|-----------------------------------------------------------------|
-|-----------------------------------------------------------------|
-|-----------------------------------------------------------------|
-|-----------------------------------------------------------------|
-|-5---------------7-7-5-5-4/5-5-5-777-7-7-777-7-7-8-8-8-8-8-8-8-8-|
-|-3--000-111-222--5-5-3-3-2/3-3-3-555-5-5-555-5-5-6-6-6-6-6-6-6-6-|
      ... ... ...

[RIFF 2 /both guitars/ (x3)]

[Riff 3]
|----------------------------------|--------------------------------------|-
|----------------------------------|--------------------------------------|-
|----------------------------------|--------------------------------------|-
|----------------------------------|--------------------------------------|-
|----------------------------------|--------------------------8--10--8--7-|-
|-00225500335533660022550066664433-|-002255003355336666665555-6--8---6--5-|-
  ................................   ........................ .  .   .  .

-|----------------------------------|--------------------------------------|
-|----------------------------------|--------------------------------------|
-|----------------------------------|--------------------------------------|
-|----------------------------------|--------------------------------------|
-|----------------------------------|--------------------------8--7--8--10-|
-|-00225500335533660022550066664433-|-002255003355336666665555-6--5--6--8--|
   ................................   ........................ .  .  .

[Riff 4 (x4)]
|---------------------------------|---------------------------------|
|---------------------------------|---------------------------------|
|---------------------------------|---------------------------------|
|---------------------------------|---------------------------------|
|-7-------6-------5-6-5-4-5-4-3-4-|-7-------6-------4-4-4-4-4-2-4-6-|
|-5-000-0-4-000-0-3-4-3-2-3-2-1-2-|-5-000-0-4-000-0-2-2-2-2-2-0-2-4-|
    ... .   ... . . . . . . . . .     ... .   ... . . . . . . . . .

[Riff 5 (x2)]
|---------------------------------|--------------------------------|-
|---------------------------------|--------------------------------|-
|---------------------------------|--------------------------------|-
|---------------------------------|--------------------------------|-
|-4-----4-5---------6-5-4-5-4-5-4-|-4-----4-5---------6-5-4-5-4-^--|-
|-2-0-0-2-3-0-0-0-0-4-3-2-3-2-3-2-|-2-0-0-2-3-0-0-0-0-4-3-2-3-2-3~-|-
    . .     . . . . . . . . . . .     . .     . . . . . . . . .

-|---------------------------------|--------------------------------|
-|---------------------------------|-----------------------------^--|
-|---------------------------------|-----------------------------3~-|
-|---------------------------------|--------------------------------|
-|-4-----4-5---------6-5-4-5-4-5-4-|-4-----4-5---------6-5-4-5-4----|
-|-2-0-0-2-3-0-0-0-0-4-3-2-3-2-3-2-|-2-0-0-2-3-0-0-0-0-4-3-2-3-2----|
     . .     . . . . . . . . . . .     . .     . . . . . . . . .

[Riff 6a (x2)]
|---------------------------------------------------|
|---------------------------------------------5-6-8-|
|---------------------------------------5-6-8-------|
|---------------------------------5-6-8-------------|
|---------------------------5-6-8-------------------|
|-556--446--336--225--5-6-8-------------------------|
  ...  ...  ...  ...  . . . . . . . . . . . . . . .

[Riff 6b (x2)]
|----------------------------------------------------------------|
|----------------------------------------------------------5-6-8-|
|----------------------------------------------------5-6-8-------|
|----------------------------------------------5-6-8-------------|
|----------------------------------------5-6-8-------------------|
|-55556666444466663333666622225555-5-6-8-------------------------|
                                   . . . . . . . . . . . . . . .

[Outro 2 (x2)]
|-------------------------------|
|-------------------------5-6-8-|
|-------------------5-6-8-------|
|-------------5-6-8-------------|
|-------5-6-8-------------------|
|-5-6-8-------------------------|
  . . . . . . . . . . . . . . .

[Riff 7 (x8)]
|---------------------------------|
|---------------------------------|
|---------------------------------|
|---------------------------------|
|-7--------4--------------------8-|
|-5-000000-2-000000333322220000-6-|
    ......   ..................

[Riff 8 /under solo/]
|--------------[x3]-|---------------|
|-------------------|---------------|
|-------------------|---------------|
|-------------------|---------------|
|-7============--8--|-7=======---2--|
|-5============--6--|-5=======---0--|
                                 .

[Riff 9 (x2)]
|--------------------------------|-------------------------------|
|--------------------------------|-------------------------------|
|--------------------------------|-------------------------------|
|--------------------------------|-------------------------------|
|-8--7---------------------------|-8--7--------------------------|
|-6--5--000000000000000000000000-|-6--5--0-0-000-0-0-000-0-0-000-|
        ........................         . . ... . . ... . . ...

[Riff 10 (x4)]
|------------------------------|
|------------------------------|
|------------------------------|
|------------------------------|
|-8--7--2-2-2-2-2-2--2-2-2-2-2-|
|-6--5--0-0-0-0-0-0--0-0-0-0-0-|
        . . . . . .  . . . . .

[RIFF 9(x2)] [RIFF 10 (x4)] [RIFF 9 (x2)] [OUTRO 2] [RIFF 1 (x2)]
comments
We did not receive enough feedback on this tab! Please rate:
print report bad tab
1 2 3 4 5
I want to post or [tab]
guest
You may want to rate the tab now too:
select rating
Please do not post tabs as comments. Select "correction" instead!