Oops, an error
Loading. Please wait.

After The Thrill Is Gone Tab

ver1
ver1

Intro

Solo

Whole song

Interactive

More versions @911Tabs.com
1,683 views 3 this week
no commentswrite comment
1 2 3 4 5
please rate
Autoscroll
+/-
esc
set tempo
stop
Contributor
Hey! There's an official Ultimate Guitar app which is ideal
for learning songs when you're away from computer. Get the app
WARNING: You are trying to view
                                    content from Ultimate-Guitar.com
                                    in an unauthorized application,
                                    which is prohibited.

                                    Please use an official Ultimate
                                    Guitar Tabs application for iPhone,
                                    iPad or Android to access legitimate
                                    chords, guitar, bass, and drum tabs
                                    from Ultimate-Guitar.com database.

                                    Type "ultimate guitar tabs" in Apple
                                    App Store's or Android Market's
                                    search to find the application.
-----------------------------------------------------------------------------
                       After the Thrill Is gone - The Eagles (GUITAR)
                       
-----------------------------------------------------------------------------
Tabbed by: Scotto10

Tuning: Standard

=============================================================================

                 

Guitar 1 acoustic



             W                   H        E  S S E  E     W                 
E||-------|--3----------------|--0--------L--0-0-0--0--|--3----------------|
B||-------|--3----------------|--1--------L--1-1-1--1--|--3----------------|
G||-------|--0----------------|--0--------L--0-0-0--0--|--0----------------|
D||-------|--0----------------|--2--------L--2-2-2--2--|--0----------------|
A||-------|--2----------------|--3--------L--3-3-3--3--|--2----------------|
E||-------|--3----------------|------------------------|--3----------------|


  W                   W                   H        E  E  S S E   
--0----------------|--0----------------|--3--------3--3--3-3-3--|
--1----------------|--1----------------|--3--------1--1--1-1-1--|
--0----------------|--2----------------|--0--------0--0--0-0-0--|
--2----------------|--2----------------|--0--------0--0--0-0-0--|
--3----------------|--0----------------|--2--------2--2--2-2-2--|
-------------------|-------------------|--3--------3--3--3-3-3--|


  W                   H        E  S S E  E     W                 
--0----------------|--3--------L--2-2-2--0--|--3----------------|
--1----------------|--3--------L--3-3-3--1--|--3----------------|
--2----------------|--0--------L--2-2-2--0--|--0----------------|
--2----------------|--0--------L--0-0-0--2--|--0----------------|
--0----------------|--2--------L---------3--|--2----------------|
-------------------|--3--------L------------|--3----------------|


  H.           S S E     W                   H        Q    Q     
--0------------0-0-0--|--3----------------|--0--------0----0----|
--1------------1-1-1--|--3----------------|--1--------1----1----|
--0------------0-0-0--|--0----------------|--0--------0----0----|
--2------------2-2-2--|--0----------------|--2--------2----0----|
--3------------3-3-3--|--2----------------|--3--------3----2----|
----------------------|--3----------------|---------------------|


  Q    H        E  S S    H.           S S E     H.           S S E   
--0----0--------L--0-0-|--3------------3-3-3--|--0------------0-0-0--|
--1----1--------L--1-1-|--3------------3-3-3--|--1------------1-1-1--|
--2----2--------L--2-2-|--0------------0-0-0--|--2------------2-2-2--|
--2----2--------L--2-2-|--0------------0-0-0--|--2------------2-2-2--|
--0----0--------L--0-0-|--2------------2-2-2--|--0------------0-0-0--|
-----------------------|--3------------3-3-3--|----------------------|


  H        E  S S E  E     H        E  E  S S E     H        E  S S E  E   
--3--------3--2-2-2--0--|--3--------L--3--3-3-3--|--0--------L--0-0-0--0--|
--3--------3--3-3-3--1--|--3--------L--3--3-3-3--|--1--------L--1-1-1--1--|
--0--------0--2-2-2--0--|--0--------L--0--0-0-0--|--0--------L--0-0-0--0--|
--0--------0--0-0-0--2--|--0--------L--0--0-0-0--|--2--------L--2-2-2--2--|
--2--------2---------3--|--2--------L--2--2-2-2--|--3--------L--3-3-3--3--|
--3--------3------------|--3--------L--3--3-3-3--|------------------------|


  H        E  E  S S E     H        Q    Q       Q    H        E  S S  
--3--------L--3--3-3-3--|--0--------0----0----|--0----0--------L--0-0-|
--3--------L--3--3-3-3--|--1--------1----1----|--1----1--------L--1-1-|
--0--------L--0--0-0-0--|--0--------0----0----|--2----2--------L--2-2-|
--0--------L--0--0-0-0--|--2--------2----0----|--2----2--------L--2-2-|
--2--------L--2--2-2-2--|--3--------3----2----|--0----0--------L--0-0-|
--3--------L--3--3-3-3--|---------------------|-----------------------|


  H.           S S E     H        E  E  Q       Q.     E  E  E  S S E   
--3------------3-3-3--|--0--------L--0--0----|--3------3--L--3--L-3-3--|
--3------------3-3-3--|--1--------L--1--1----|--3------3--L--3--L-3-3--|
--0------------0-0-0--|--2--------L--2--2----|--0------0--L--0--L-0-0--|
--0------------0-0-0--|--2--------L--2--2----|--0------0--L--0--L-0-0--|
--2------------2-2-2--|--0--------L--0--0----|--2------2--L--2--L-2-2--|
--3------------3-3-3--|----------------------|--3------3--L--3--L-3-3--|


  H        E  E  E  E     Q.     E  S S E  E  E     Q    Q    E  Q    E   
-----------------------|--3------3--2-2-2--2--2--|--0----0----0--0----0--|
--1--------L--1--1--1--|--3------3--3-3-3--3--3--|--0----0----0--0----0--|
--2--------L--2--2--2--|--0------0--2-2-2--2--2--|--0----0----0--0----0--|
--2--------L--2--2--2--|--0------0--0-0-0--0--0--|--2----2----2--2----2--|
--0--------L--0--0--0--|--2------2---------------|--2----2----2--2----2--|
-----------------------|--3------3--2-2-2--2--2--|--0----0----0--0----0--|


  Q    E.  S E  E  E  E     Q    E.  S E  E  E  E     Q    E.  S E  E  S S E   
--2----2---2-2--2--2-----|--0----0---0-0--0--0--0--|--3----3---3-3--3--3-3-3--|
--3----3---3-3--3--3-----|--1----1---1-1--1--1--1--|--3----3---3-3--3--3-3-3--|
--2----2---2-2--2--2-----|--0----0---0-0--0--0--0--|--0----0---0-0--0--0-0-0--|
--4----4---4-4--4--4-----|--2----2---2-2--2--2--2--|--0----0---0-0--0--0-0-0--|
--2----2---2-2--2--2-----|--0----0---0-0--0--0--0--|--2----2---2-2--2--2-2-2--|
-------------------------|-------------------------|--3----3---3-3--3--3-3-3--|


  Q    E.  S E  E  Q       Q    E.  S E  E  E  E     Q    E.  S E  E  E  E   
--0----0---0-0--0--0----|--2----2---2-2--2--2--2--|--3----3---3-3--3--3-----|
--0----0---0-0--0--0----|--3----3---3-3--3--3--3--|--4----4---4-4--4--4-----|
--0----0---0-0--0--0----|--2----2---2-2--2--2--2--|--5----5---5-5--5--5-----|
--2----2---2-2--2--2----|--4----4---4-4--4--4--4--|--5----5---5-5--5--5-----|
--2----2---2-2--2--2----|--2----2---2-2--2--2--2--|--3----3---3-3--3--3-----|
--0----0---0-0--0--0----|-------------------------|-------------------------|


  W                   W                   H        E  E  S S E   
-------------------|--3----------------|--0--------L--0--0-0-0--|
--5----------------|--3----------------|--1--------L--1--1-1-1--|
--5----------------|--0----------------|--0--------L--0--0-0-0--|
--5----------------|--0----------------|--2--------L--2--2-2-2--|
--5----------------|--2----------------|--3--------L--3--3-3-3--|
-------------------|--3----------------|------------------------|


  W                   W                   H        E  E  E  E   
--3----------------|--0----------------|--0--------L--0--0--0--|
--3----------------|--1----------------|--1--------L--1--1--1--|
--0----------------|--0----------------|--2--------L--2--2--2--|
--0----------------|--2----------------|--2--------L--2--2--2--|
--2----------------|--3----------------|--0--------L--0--0--0--|
--3----------------|-------------------|-----------------------|


  H        S S E  S S E     H        E  E  E  E     H        E  S S E  E   
--3--------L-3-3--3-3-3--|--0--------L--0--0--0--|--3--------3--2-2-2--0--|
--3--------L-3-3--3-3-3--|--1--------L--1--1--1--|--3--------3--3-3-3--1--|
--0--------L-0-0--0-0-0--|--2--------L--2--2--2--|--0--------0--2-2-2--0--|
--0--------L-0-0--0-0-0--|--2--------L--2--2--2--|--0--------0--0-0-0--2--|
--2--------L-2-2--2-2-2--|--0--------L--0--0--0--|--2--------2---------3--|
--3--------L-3-3--3-3-3--|-----------------------|--3--------3------------|


  Q.     E  E  S S S S E     H        E  S S E  E     H        E  E  S S E   
--3------3--3--3-3-3-3-3--|--0--------L--0-0-0--0--|--3--------L--3--3-3-3--|
--3------3--3--3-3-3-3-3--|--1--------L--1-1-1--1--|--3--------L--3--3-3-3--|
--0------0--0--0-0-0-0-0--|--0--------L--0-0-0--0--|--0--------L--0--0-0-0--|
--0------0--0--0-0-0-0-0--|--2--------L--2-2-2--2--|--0--------L--0--0-0-0--|
--2------2--2--2-2-2-2-2--|--3--------L--3-3-3--3--|--2--------L--2--2-2-2--|
--3------3--3--3-3-3-3-3--|------------------------|--3--------L--3--3-3-3--|


  Q    Q    E  E  E  E     Q    Q    E  E  E  E     Q    Q    E  E  E  E   
--0----0----L--0--0--0--|--0----0----L--0--0--0--|--3----3----L--3--3--3--|
--1----1----L--1--1--1--|--1----1----L--1--1--1--|--3----3----L--3--3--3--|
--0----0----L--0--0--0--|--2----2----L--2--2--2--|--0----0----L--0--0--0--|
--2----2----L--2--2--2--|--2----2----L--2--2--2--|--0----0----L--0--0--0--|
--3----3----L--3--3--3--|--0----0----L--0--0--0--|--2----2----L--2--2--2--|
------------------------|------------------------|--3----3----L--3--3--3--|


  Q    Q    E  E  E  E     Q    E  S S E  S S E  E     Q    Q    E  Q    E   
--0----0----L--0--0--0--|--3----3--3-3-3--3-3-3--3--|--0----0----0--0----0--|
--1----1----L--1--1--1--|--3----3--3-3-3--3-3-3--3--|--0----0----0--0----0--|
--2----2----L--2--2--2--|--0----0--0-0-0--0-0-0--0--|--0----0----0--0----0--|
--2----2----L--2--2--2--|--0----0--0-0-0--0-0-0--0--|--2----2----2--2----2--|
--0----0----L--0--0--0--|--2----2--2-2-2--2-2-2--2--|--2----2----2--2----2--|
------------------------|--3----3--3-3-3--3-3-3--3--|--0----0----0--0----0--|


  Q    E.  S E  E  E  E     Q    E.  S E  E  E  E     Q    E.  S E  E  S S E   
--2----2---2-2--2--2-----|--0----0---0-0--0--0--0--|--3----3---3-3--3--3-3-3--|
--3----3---3-3--3--3-----|--1----1---1-1--1--1--1--|--3----3---3-3--3--3-3-3--|
--2----2---2-2--2--2-----|--0----0---0-0--0--0--0--|--0----0---0-0--0--0-0-0--|
--4----4---4-4--4--4-----|--2----2---2-2--2--2--2--|--0----0---0-0--0--0-0-0--|
--2----2---2-2--2--2-----|--0----0---0-0--0--0--0--|--2----2---2-2--2--2-2-2--|
-------------------------|-------------------------|--3----3---3-3--3--3-3-3--|


  Q    E.  S E  E  Q       Q    E.  S E  E  E  E     Q    E.  S E  E  E  E   
--0----0---0-0--0--0----|--2----2---2-2--2--2--2--|--3----3---3-3--3--3-----|
--0----0---0-0--0--0----|--3----3---3-3--3--3--3--|--4----4---4-4--4--4-----|
--0----0---0-0--0--0----|--2----2---2-2--2--2--2--|--5----5---5-5--5--5-----|
--2----2---2-2--2--2----|--4----4---4-4--4--4--4--|--5----5---5-5--5--5-----|
--2----2---2-2--2--2----|--2----2---2-2--2--2--2--|--3----3---3-3--3--3-----|
--0----0---0-0--0--0----|-------------------------|-------------------------|


  W                   W                   H        E  E  S S E   
-------------------|--3----------------|--0--------L--0--0-0-0--|
--5----------------|--3----------------|--1--------L--1--1-1-1--|
--5----------------|--0----------------|--0--------L--0--0-0-0--|
--5----------------|--0----------------|--2--------L--2--2-2-2--|
--5----------------|--2----------------|--3--------L--3--3-3-3--|
-------------------|--3----------------|------------------------|


  W                   W                   H        E  E  E  E   
--3----------------|--0----------------|--0--------L--0--0--0--|
--3----------------|--1----------------|--1--------L--1--1--1--|
--0----------------|--0----------------|--2--------L--2--2--2--|
--0----------------|--2----------------|--2--------L--2--2--2--|
--2----------------|--3----------------|--0--------L--0--0--0--|
--3----------------|-------------------|-----------------------|


  H        S S E  S S E     H        E  E  E  E     Q.     E  S S E  S S E   
--3--------L-3-3--3-3-3--|--0--------L--0--0--0--|--3------3--3-3-3--3-3-3--|
--3--------L-3-3--3-3-3--|--1--------L--1--1--1--|--3------3--3-3-3--3-3-3--|
--0--------L-0-0--0-0-0--|--2--------L--2--2--2--|--0------0--0-0-0--0-0-0--|
--0--------L-0-0--0-0-0--|--2--------L--2--2--2--|--0------0--0-0-0--0-0-0--|
--2--------L-2-2--2-2-2--|--0--------L--0--0--0--|--2------2--2-2-2--2-2-2--|
--3--------L-3-3--3-3-3--|-----------------------|--3------3--3-3-3--3-3-3--|


  H        E  E  E  E     Q.     S S S S E  S S E     H        E  E  E  E   
--0--------L--0--0--0--|--3------3-3-3-3-3--3-3-3--|--0--------L--0--0--0--|
--1--------L--1--1--1--|--3------3-3-3-3-3--3-3-3--|--1--------L--1--1--1--|
--2--------L--2--2--2--|--0------0-0-0-0-0--0-0-0--|--2--------L--2--2--2--|
--2--------L--2--2--2--|--0------0-0-0-0-0--0-0-0--|--2--------L--2--2--2--|
--0--------L--0--0--0--|--2------2-2-2-2-2--2-2-2--|--0--------L--0--0--0--|
-----------------------|--3------3-3-3-3-3--3-3-3--|-----------------------|


  Q.     S S E  E  E  E     W                   Q    E  S S E  E  E  E   
--3------3-3-3--3--3--3--|-------------------|-------3--3-3-3--3--3--3--|
--3------3-3-3--3--3--3--|--4----------------|-------3--3-3-3--3--3--3--|
--0------0-0-0--0--0--0--|--5----------------|-------0--0-0-0--0--0--0--|
--0------0-0-0--0--0--0--|--5----------------|-------0--0-0-0--0--0--0--|
--2------2-2-2--2--2--2--|--3----------------|-------2--2-2-2--2--2--2--|
--3------3-3-3--3--3--3--|-------------------|-------3--3-3-3--3--3--3--|


           ^                                                     
  E  E  E  E  H           W                   W                  
--0--0-----3--L--------|--3----------------|--L----------------||
--1--1-----4--L--------|--3----------------|--L----------------||
--0--0-----3--L--------|--0----------------|--L----------------||
--2--2-----5--L--------|--0----------------|--L----------------||
--3--3-----3--L--------|--2----------------|--L----------------||
-----------------------|--3----------------|--L----------------||



=====================================================================
=====================================================================


Guitar 2 electric clean



             Q        E.   S   S S   E   E  S S    E  S  S  S S   E  H         
E||-------|-------10g12---12s-10-x-5g7s--5--x-x-|--5--5s-7s-5-x---3--L--------|
B||-------|-------10g12---12s-10-x-5g7s--5--x-x-|--5--5s-7s-5-x-5g5--L--------|
G||-------|-------------------------------------|-----------------L-----------|
D||-------|-------------------------------------|-----------------------------|
A||-------|-------------------------------------|-----------------------------|
E||-------|-------------------------------------|-----------------------------|


  Q        Q      E  S  S  E  E     E.   S S   S H        E    
-------10g12s----10--5s-7s-5--x--|--5s---7-5---3-3--------L\--|
-------10g12s----10--5s-7s-5--x--|--5s---7-5-3g5-5--------L\--|
---------------------------------|----------------------------|
---------------------------------|----------------------------|
---------------------------------|----------------------------|
---------------------------------|----------------------------|


   E  Q    E   E  E  Q       S  S  E   S   S  Q     E   E   E   
--/5----------/5--3-------|--5s-7-10--10s-12-10-----L--/7s--5--|
--/5----------/5--3-------|--5s-7--8---8s-10--8-----L--/7s--5--|
--------------------------|------------------------------------|
--------------------------|------------------------------------|
--------------------------|------------------------------------|
--------------------------|------------------------------------|


  E   Q    E     E  E  S S E     H.            E   E     S  H.           E.   
--3s--5----L\--5g7--5--3-5-x--|--3--------------------|----------------------|
--3s--5----L\--5g7--5--3-5-x--|--3------------/3s--1--|--1s-3------------L---|
------------------------------|---------------/4s--2--|--2s-4------------L---|
------------------------------|-----------------------|----------------------|
------------------------------|-----------------------|----------------------|
------------------------------|-----------------------|----------------------|


  H.            E   E     S  H.           E.     H        Q    Q     
-----------------------|----------------------|---------------------|
---------------/3s--1--|--1s-3------------L---|---------------------|
---------------/4s--2--|--2s-4------------L---|---------------------|
-----------------------|----------------------|---------------------|
-----------------------|----------------------|-----------3----2----|
-----------------------|----------------------|---------------------|


  W                   H.           S  E.     W                 
-------------------|----------------------|-------------------|
-------------------|----------------------|-------------------|
-------------------|----------------------|-------------------|
-------------------|----------------------|-------------------|
--0----------------|--2------------3s-5---|--0----------------|
-------------------|--3-------------------|-------------------|


  W                                                                             
-------------------|-------------------|-------------------|-------------------|
-------------------|-------------------|-------------------|-------------------|
-------------------|-------------------|-------------------|-------------------|
--0----------------|-------------------|-------------------|-------------------|
--2----------------|-------------------|-------------------|-------------------|
--3----------------|-------------------|-------------------|-------------------|


  H        Q    Q       Q    H        E  E     Q.     H        E   
---------------------|--0----0--------0--0--|---------------------|
---------------------|--1----1--------1--1--|---------------------|
---------------------|--2----2--------2--2--|---------0--------L--|
---------------------|--2----2--------------|---------0--------L--|
-----------3----2----|--0----0--------------|--2------2--------L--|
---------------------|----------------------|--3------------------|


  Q    H        E  S S    Q    Q    E  Q    S S    Q    H        E  S S  
-------0--------L------|-------3----L--3--------|-------0--------0------|
-------1--------L------|-------3----L--3----3-3-|-------1--------1--1-1-|
-------2--------L------|-------0----L--0----0-0-|-------2--------2--2-2-|
-------2--------L--2-2-|--0---------------------|--2----2--------2------|
--0----------------0-0-|--2---------------------|--0--------------------|
-----------------------|--3---------------------|-----------------------|


  E  E  E  E  E  Q.        Q    H        E  E     E  E  E  E  H         
------------------------|-------0--------L-----|-----------------------|
------------------------|-------0--------L-----|-----------------------|
--------0--------0------|-------0--------L-----|--------2--------------|
-----0-----0------------|-------2--------L-----|-----0-----------------|
------------------------|-------------------0--|--2--------2--L--------|
--3-----------2---------|--0-------------------|-----------------------|


  E  E  Q    E  E  E  E     E  S  S S S S  S S S S  S S  S S  S  
-------------------------|--------------------------------------|
-------------------------|--------------------------------------|
--------0----L-----0-----|-------------------0---2p-0-----------|
-----2----------------2--|----------0---0h-2---0------0h-2------|
--0-------------0--------|-----0h-2---0--------------------0h-2-|
-------------------------|--3-----------------------------------|


  Q    H.              E  E  E  E  H           E  E  E  E  E  E  Q     
-------0------------|-----------------------|-------------------------|
-------0------------|-----------------------|--------------1----------|
-------0------------|--------2--------------|--------2--------2-------|
-------2------------|-----0-----------------|-----1-----1--------1----|
--------------------|--2--------2--L--------|--3----------------------|
--0-----------------|-----------------------|-------------------------|


  H         H           W                   H        E  S  S E  E   
---------------------|-------------------|-------------------------|
--5--------/7--------|-------------------|--1--------L-------1-----|
--5--------/7--------|--0----------------|--0--------L-------0-----|
--5--------/7--------|--0----------------|--2--------L----------0--|
---------------------|--2----------------|--3--------L--3h-5-3-----|
---------------------|--3----------------|-------------------------|


  H        H           H        Q    Q       Q    H.            
-----------2--------|---------------------|-------0------------|
-----------3--------|--1--------1----0----|-------1------------|
--0--------0--------|--0--------0----0----|-------2------------|
--0-----------------|---------------------|-------2------------|
--2-----------------|--3--------3----2----|--0-----------------|
--3-----------------|---------------------|--------------------|


  H.           E  S S    Q    H.              H         Q     E.  S  
----------------------|-------0------------|------------------------|
---------------0--0-0-|-------1------------|------------------------|
--0------------0--0-0-|-------2------------|-----------/9~----7---9-|
--0-------------------|-------2------------|------------------------|
--2-------------------|--0-----------------|------------------------|
--3-------------------|--------------------|------------------------|


  Q     E.   S T  T  T  T S S  E   S  S      Q.     E   S S S S  E  E   
----------------------------------------|------------------------------|
----------------------------------------|---------------------------8--|
----------------------------------------|---/5--------------7-7s-9-----|
--9~----L\----------------5---/9s--7p-5-|--/10------5b--5--------------|
---------------5h-6h-7h-8---------------|------------------------------|
----------------------------------------|------------------------------|


                                                  |--3--|                      
  S  Q     S S S     Q      S    E.      S  S S S S  S  S  S S S  S E  S S E   
------------------xg10b-----Lpb-10~---|--8p-7-8---7h-8p-7---------------------|
---------------x----------------------|-------------------10---8-10-8--8------|
--9p-7~------x------------------------|----------------------------------9----|
--------------------------------------|------------------------------------9--|
--------------------------------------|---------------------------------------|
--------------------------------------|---------------------------------------|


    Q.      E   E   E   E    S     S     E    E     E      Q.       S  S  E   
-------------------------------------|---------------------------------------|
-------------------------------------|-------15------------------------------|
-------------------12--14b--14pbr-12-|--14b---Lpb---Lpbr-----------------12--|
--/10------12--14--------------------|--------------------12~------12-14-----|
-------------------------------------|---------------------------------------|
-------------------------------------|---------------------------------------|


   S   Q.       S  E   E   E    E    
------------------------------------|
------------------13--12--15b--15~--|
--12s-14~-------L-------------------|
------------------------------------|
------------------------------------|
------------------------------------|


                       |---3---|                                    
   Q     E.     S  E   S   S   S  S  S  E      Q    H        E  E   
--------19pbr-----15------------------------|-------0--------L-----|
---L----------------------------------------|-------0--------L-----|
----------------------12h-14p-12------------|-------0--------L-----|
---------------------------------14-12------|-------2--------L-----|
---------------------------------------14\--|-------------------0--|
--------------------------------------------|--0-------------------|


  E  E  E  E  H           E  E  Q    E  E  E  E   
-----------------------|-------------------------|
-----------------------|-------------------------|
--------2--------------|--------0----L-----0-----|
-----0-----------------|-----2----------------2--|
--2--------2--L--------|--0-------------0--------|
-----------------------|-------------------------|


  Q    S  S E  S  S S  S S  S E     Q    H.              E  E  E  E  H         
---------------------------------|-------0------------|-----------------------|
---------------1p-0--------------|-------0------------|-----------------------|
--------------------2p-0------0--|-------0------------|--------2--------------|
------------0------------0h-2----|-------2------------|-----0-----------------|
-------0h-2----------------------|--------------------|--2--------2--L--------|
--3------------------------------|--0-----------------|-----------------------|


                            ^        ^                             
  E  E  E  E  E  E  Q       H        H           W                 
-------------------------|--------------------|-------------------|
--------------1----------|--5--------7--------|-------------------|
--------2--------2-------|--5--------7--------|--0----------------|
-----1-----1--------1----|--5--------7--------|--0----------------|
--3----------------------|--------------------|--2----------------|
-------------------------|--------------------|--3----------------|


  H        E  S  S E  E     H        H           H        Q    Q     
-------------------------|-----------2--------|---------------------|
--1--------L-------1-----|-----------3--------|--1--------1----0----|
--0--------L-------0-----|--0--------0--------|--0--------0----0----|
--2--------L----------0--|--0-----------------|---------------------|
--3--------L--3h-5-3-----|--2-----------------|--3--------3----2----|
-------------------------|--3-----------------|---------------------|


  Q    E  Q    E  Q       Q.     E  Q    E  E     Q    H.            
--0-------0----L-------|-----------------3-----|-------0------------|
--1-------1----L--1----|-----------------3-----|-------1------------|
--2-------2----L--2----|--------------------0--|-------2------------|
--2----2----------2----|--0------0-------------|-------2------------|
--0----0----------0----|--2--------------------|--0-----------------|
-----------------------|--3---------3----------|--------------------|


  Q    H        E  S S    Q    E  E  E  E  Q       E  E  E  E  Q.     S S  
----------------3--0-0-|----------0--L--0-------|-----------3---------0-0-|
-------3--------3--0-0-|----------1--L--1--1----|--1--0-----0---------1-1-|
--0----0--------0--0-0-|-------2-----------2----|--0--0--2--0--0------2-2-|
--0--------------------|--2----------------2----|--------------0----------|
--2--------------------|--0----------------0----|-------------------------|
--3--------------------|------------------------|--------------3----------|


  Q    E  Q    E  Q       Q.     E  Q    E  E     W                 
--0-------0----L-------|-----------------3-----|-------------------|
--1-------1----L--1----|-----------------3-----|--4----------------|
--2-------2----L--2----|--------------------0--|--5----------------|
--2----2----------2----|--0------0-------------|--5----------------|
--0----0----------0----|--2--------------------|--3----------------|
-----------------------|--3---------3----------|-------------------|


  Q      E.   S   E  S  S  E  E     E   E  E  Q    E   Q     
-------/12---12s-10--5s-7s-5--3--|--5s--7-------------------|
-------/12---12s-10--5s-7s-5--3--|--5s--7-------------------|
---------------------------------|------------8----Ls--5----|
---------------------------------|--------------------------|
---------------------------------|--------------------------|
---------------------------------|--------------------------|


  ^                                          
  H          H            W                  
--3s--------10--------|---L----------------||
--3-------------------|--------------------||
--4-------------------|--------------------||
----------------------|--------------------||
----------------------|--------------------||
----------------------|--------------------||


=====================================================================
=====================================================================


Guitar 3



E||-------|-------|-------|-------|-------|-------|-------|-------|-------|
B||-------|-------|-------|-------|-------|-------|-------|-------|-------|
G||-------|-------|-------|-------|-------|-------|-------|-------|-------|
D||-------|-------|-------|-------|-------|-------|-------|-------|-------|
A||-------|-------|-------|-------|-------|-------|-------|-------|-------|
E||-------|-------|-------|-------|-------|-------|-------|-------|-------|


-------|-------|-------|-------|-------|-------|-------|-------|
-------|-------|-------|-------|-------|-------|-------|-------|
-------|-------|-------|-------|-------|-------|-------|-------|
-------|-------|-------|-------|-------|-------|-------|-------|
-------|-------|-------|-------|-------|-------|-------|-------|
-------|-------|-------|-------|-------|-------|-------|-------|


  Q    S H        E.     Q    S H        E.     Q    S H        E.   
-------3--------------|-------8--------------|-------3--------------|
-------3--------------|-------8--------------|-------3--------------|
-------4--------------|-------9--------------|-------4--------------|
----------------------|----------------------|----------------------|
----------------------|----------------------|----------------------|
----------------------|----------------------|----------------------|


  Q    S H        E.     Q    S H        E.     Q    S H        E.   
-------8--------------|-------5--------------|-------3--------------|
-------8--------------|-------5--------------|-------3--------------|
-------9--------------|-------5--------------|-------4--------------|
----------------------|----------------------|----------------------|
----------------------|----------------------|----------------------|
----------------------|----------------------|----------------------|


  Q    S H        E.     Q    S H        E.     Q    S H        E.   
-------5--------------|-------3--------------|-------5--------------|
-------5--------------|-------3--------------|-------5--------------|
-------5--------------|-------4--------------|-------5--------------|
----------------------|----------------------|----------------------|
----------------------|----------------------|----------------------|
----------------------|----------------------|----------------------|


  Q    S H        E.     Q     S Q    S  S Q    S    Q     S Q    S  S Q    S  
-------3--------------|-------12--------12--------|-------10--------10--------|
-------3--------------|-------12--------12--------|-------10--------10--------|
-------4--------------|-------12--------12--------|-------11--------11--------|
----------------------|---------------------------|---------------------------|
----------------------|---------------------------|---------------------------|
----------------------|---------------------------|---------------------------|


  Q    S Q    S S Q    S    Q    S Q    S S Q    S    Q     S Q    S  S Q    S  
-------8--------8--------|-------3--------3--------|-------12--------12--------|
-------8--------8--------|-------3--------3--------|-------12--------12--------|
-------9--------9--------|-------4--------4--------|-------12--------12--------|
-------------------------|-------------------------|---------------------------|
-------------------------|-------------------------|---------------------------|
-------------------------|-------------------------|---------------------------|


  Q     S Q    S  S Q    S    Q    S Q    S S Q    S    W                 
-------10--------10--------|-------8--------8--------|-------------------|
-------10--------10--------|-------8--------8--------|-------------------|
-------11--------11--------|-------8--------8--------|-------------------|
---------------------------|-------------------------|-------------------|
---------------------------|-------------------------|-------------------|
---------------------------|-------------------------|-------------------|


  Q    S H        E.     Q    S H        E.     Q    S H        E.   
-------3--------------|-------8--------------|-------3--------------|
-------3--------------|-------8--------------|-------3--------------|
-------4--------------|-------9--------------|-------4--------------|
----------------------|----------------------|----------------------|
----------------------|----------------------|----------------------|
----------------------|----------------------|----------------------|


  Q    S H        E.     Q    S H        E.     Q    S H        E.   
-------8--------------|-------5--------------|-------3--------------|
-------8--------------|-------5--------------|-------3--------------|
-------9--------------|-------5--------------|-------4--------------|
----------------------|----------------------|----------------------|
----------------------|----------------------|----------------------|
----------------------|----------------------|----------------------|


  Q    S H        E.                                                           
-------5--------------|-------|-------|-------|-------|-------|-------|-------|
-------5--------------|-------|-------|-------|-------|-------|-------|-------|
-------5--------------|-------|-------|-------|-------|-------|-------|-------|
----------------------|-------|-------|-------|-------|-------|-------|-------|
----------------------|-------|-------|-------|-------|-------|-------|-------|
----------------------|-------|-------|-------|-------|-------|-------|-------|


                  Q     S Q    S  S Q    S    Q     S Q    S  S Q    S  
-------|-------|-------12--------12--------|-------10--------10--------|
-------|-------|-------12--------12--------|-------10--------10--------|
-------|-------|-------12--------12--------|-------11--------11--------|
-------|-------|---------------------------|---------------------------|
-------|-------|---------------------------|---------------------------|
-------|-------|---------------------------|---------------------------|


  Q    S Q    S S Q    S    Q    S Q    S S Q    S    Q     S Q    S  S Q    S  
-------8--------8--------|-------3--------3--------|-------12--------12--------|
-------8--------8--------|-------3--------3--------|-------12--------12--------|
-------9--------9--------|-------4--------4--------|-------12--------12--------|
-------------------------|-------------------------|---------------------------|
-------------------------|-------------------------|---------------------------|
-------------------------|-------------------------|---------------------------|


  Q     S Q    S  S Q    S    Q    S Q    S S Q    S    W                 
-------10--------10--------|-------8--------8--------|-------------------|
-------10--------10--------|-------8--------8--------|-------------------|
-------11--------11--------|-------8--------8--------|-------------------|
---------------------------|-------------------------|-------------------|
---------------------------|-------------------------|-------------------|
---------------------------|-------------------------|-------------------|


  Q    S H        E.     Q    S H        E.     Q    S H        E.   
-------3--------------|-------8--------------|-------3--------------|
-------3--------------|-------8--------------|-------3--------------|
-------4--------------|-------9--------------|-------4--------------|
----------------------|----------------------|----------------------|
----------------------|----------------------|----------------------|
----------------------|----------------------|----------------------|


  Q    S H        E.     Q    S H        E.     Q    S H        E.   
-------8--------------|-------5--------------|-------3--------------|
-------8--------------|-------5--------------|-------3--------------|
-------9--------------|-------5--------------|-------4--------------|
----------------------|----------------------|----------------------|
----------------------|----------------------|----------------------|
----------------------|----------------------|----------------------|


  Q    S H        E.                                                           
-------5--------------|-------|-------|-------|-------|-------|-------|-------|
-------5--------------|-------|-------|-------|-------|-------|-------|-------|
-------5--------------|-------|-------|-------|-------|-------|-------|-------|
----------------------|-------|-------|-------|-------|-------|-------|-------|
----------------------|-------|-------|-------|-------|-------|-------|-------|
----------------------|-------|-------|-------|-------|-------|-------|-------|


-------|-------|-------||
-------|-------|-------||
-------|-------|-------||
-------|-------|-------||
-------|-------|-------||
-------|-------|-------||



======================================================================
======================================================================


Guitar 2



E||-------|-------|-------|-------|-------|-------|-------|-------|-------|
B||-------|-------|-------|-------|-------|-------|-------|-------|-------|
G||-------|-------|-------|-------|-------|-------|-------|-------|-------|
D||-------|-------|-------|-------|-------|-------|-------|-------|-------|
A||-------|-------|-------|-------|-------|-------|-------|-------|-------|
E||-------|-------|-------|-------|-------|-------|-------|-------|-------|


                                  Q    E  E  Q    Q       E  E  E  H        E   
-------|-------|-------|-------|-----------------------|-----------------------|
-------|-------|-------|-------|-------8-----7---------|--7--7-----5--------L--|
-------|-------|-------|-------|-------9-----7---------|--7--7-----5--------L--|
-------|-------|-------|-------|-----------------------|-----------------------|
-------|-------|-------|-------|-----------------------|-----------------------|
-------|-------|-------|-------|-----------------------|-----------------------|


  E  E  E  E  Q.     E     E  E  E   H         E     Q    E  E  Q    Q     
------------------------|-------------------------|-----------------------|
--L-----8-----7---------|--7--7-----10---------L--|-------8-----7---------|
--L-----9-----7---------|--7--7-----11---------L--|-------9-----7---------|
------------------------|-------------------------|-----------------------|
------------------------|-------------------------|-----------------------|
------------------------|-------------------------|-----------------------|


  E  E  E  H        E     E  E  E  E  Q.     E     E  E  E   H         E   
-----------------------|------------------------|-------------------------|
--7--7-----5--------L--|--L-----8-----7---------|--7--7-----10---------L--|
--7--7-----5--------L--|--L-----9-----7---------|--7--7-----11---------L--|
-----------------------|------------------------|-------------------------|
-----------------------|------------------------|-------------------------|
-----------------------|------------------------|-------------------------|


  Q    E  E  E  Q    E     E  E  E  Q.     E  E     Q    E  E  E  Q    E   
------------------------|------------------------|------------------------|
-------8--8--8--8-------|-----5--5--5------5-----|-------7--7--7--7-------|
-------9--9--9--9-------|-----5--5--5------5-----|-------7--7--7--7-------|
------------------------|------------------------|------------------------|
------------------------|------------------------|------------------------|
------------------------|------------------------|------------------------|


  E  E  E  Q.     Q       Q     E   E   E   Q    E     E  E  E  Q.     Q     
-----------------------|----------------------------|-----------------------|
-----8--8--8------8----|-------10--10--10--10-------|-----5--5--5------5----|
-----9--9--9------9----|-------11--11--11--11-------|-----5--5--5------5----|
-----------------------|----------------------------|-----------------------|
-----------------------|----------------------------|-----------------------|
-----------------------|----------------------------|-----------------------|


  Q    E  E  E  Q    E     E  E  E   Q    E  Q       Q    E  E  Q    E   E   
------------------------|-------------------------|-------------------------|
-------8--8--8--7----8--|-----7-----10-------8----|-------------------------|
-------9--9--9--7----9--|-----7-----11-------9----|-------------------------|
------------------------|-------------------------|-------5-----9----L--10--|
------------------------|-------------------------|-------------------------|
------------------------|-------------------------|-------------------------|


      |---3--|          |--3--|                                   
   E  S   S  S E  E  E  S  S  S E  E     Q     E  E  Q.       E   
--------------------------------------|--------------------------|
--------------------------------------|--------------------------|
--------------------------------------|--------------------------|
---L--9h-10p-9-7--5--7--5h-7p-5-4-----|--------5-----9------/12--|
-----------------------------------5--|--7~----------------------|
--------------------------------------|--------------------------|


            |----3----|                                       
   E   E  S Q    Q    Q     S  S S    Q     E  E  Q.      E   
-----------------------------------|-------------------------|
-----------------------------------|-------------------------|
-----------------------------------|-------------------------|
---L--10----9----7----9----10p-9-7-|--9b----5-----9------10--|
-----------------------------------|-------------------------|
-----------------------------------|-------------------------|


      |---3--|          |--3--|                                
   E  S   S  S E  E  E  S  S  S E  E     Q    E  E  Q.     E   
--------------------------------------|-----------------------|
--------------------------------------|-----------------------|
--------------------------------------|-----------------------|
---L--9h-10p-9-7--5--7--5h-7p-5-4-----|-------5-----9------7--|
-----------------------------------5--|--7--------------------|
--------------------------------------|-----------------------|


  W                   W                   Q    E  E  Q    Q     
-------------------|-------------------|-----------------------|
-------------------|-------------------|-------8-----7---------|
-------------------|-------------------|-------9-----7---------|
--L----------------|-------------------|-----------------------|
-------------------|-------------------|-----------------------|
-------------------|-------------------|-----------------------|


  E  E  E  H        E     E  E  E  E  Q.     E     E  E  E   H         E   
-----------------------|------------------------|-------------------------|
--7--7-----5--------L--|--L-----8-----7---------|--7--7-----10---------L--|
--7--7-----5--------L--|--L-----9-----7---------|--7--7-----11---------L--|
-----------------------|------------------------|-------------------------|
-----------------------|------------------------|-------------------------|
-----------------------|------------------------|-------------------------|


  Q    E  E  Q    Q       E  E  E  H        E     E  E  E  E  Q.     E   
-----------------------|-----------------------|------------------------|
-------8-----7---------|--7--7-----5--------L--|--L-----8-----7---------|
-------9-----7---------|--7--7-----5--------L--|--L-----9-----7---------|
-----------------------|-----------------------|------------------------|
-----------------------|-----------------------|------------------------|
-----------------------|-----------------------|------------------------|


  E  E  E   H         E     Q    E  E  E  Q    E     E  E  E  Q.     E  E   
-------------------------|------------------------|------------------------|
--7--7-----10---------L--|-------8--8--8--8-------|-----5--5--5------5-----|
--7--7-----11---------L--|-------9--9--9--9-------|-----5--5--5------5-----|
-------------------------|------------------------|------------------------|
-------------------------|------------------------|------------------------|
-------------------------|------------------------|------------------------|


  Q    E  E  E  Q    E     E  E  E  Q.     Q       Q     E   E   E   Q    E   
------------------------|-----------------------|----------------------------|
-------7--7--7--7-------|-----8--8--8------8----|-------10--10--10--10-------|
-------7--7--7--7-------|-----9--9--9------9----|-------11--11--11--11-------|
------------------------|-----------------------|----------------------------|
------------------------|-----------------------|----------------------------|
------------------------|-----------------------|----------------------------|


  E  E  E  Q.     Q       Q    E  E  E  Q    E     E  E  E   Q    E  Q     
-----------------------|------------------------|-------------------------|
-----5--5--5------5----|-------8--8--8--7----8--|-----7-----10-------8----|
-----5--5--5------5----|-------9--9--9--7----9--|-----7-----11-------9----|
-----------------------|------------------------|-------------------------|
-----------------------|------------------------|-------------------------|
-----------------------|------------------------|-------------------------|


                                |---3--|          |--3--|        
  Q    E  E  Q    E   E      E  S   S  S E  E  E  S  S  S E  E   
-------------------------|--------------------------------------|
-------------------------|--------------------------------------|
-------------------------|--------------------------------------|
-------5-----9----L--10--|---L--9h-10p-9-7--5--7--5h-7p-5-4-----|
-------------------------|-----------------------------------5--|
-------------------------|--------------------------------------|


                                       |----3----|             
  Q     E  E  Q.       E      E   E  S Q    Q    Q     S  S S  
--------------------------|-----------------------------------|
--------------------------|-----------------------------------|
--------------------------|-----------------------------------|
--------5-----9------/12--|---L--10----9----7----9----10p-9-7-|
--7~----------------------|-----------------------------------|
--------------------------|-----------------------------------|


                                |---3--|          |--3--|        
  Q     E  E  Q.      E      E  S   S  S E  E  E  S  S  S E  E   
-------------------------|--------------------------------------|
-------------------------|--------------------------------------|
-------------------------|--------------------------------------|
--9b----5-----9------10--|---L--9h-10p-9-7--5--7--5h-7p-5-4-----|
-------------------------|-----------------------------------5--|
-------------------------|--------------------------------------|


  Q    E  E  Q.     E   
-----------------------|
-----------------------|
-----------------------|
-------5-----9------7--|
--7--------------------|
-----------------------|


   |--3--| |--3--| |--3-|  |--3-|  |--3-|  |--3--|  |--3-|  |--3--|  
   S  S  S S  S  S S  S S  S S  S  S S  S  S  S  S  S S  S  S  S  S  
--------------------------------------------------------------------|
---------------------------------------------10---------------10-12-|
-------------------------------------9-11-12----12-11-9-11-12-------|
-------------------9-10-9----9-10-12--------------------------------|
-----------9-10-12--------12----------------------------------------|
--12-10-12----------------------------------------------------------|


  |--3--|  |--3-|  |--3--|  |--3--|  |--3--|                 
  S  S  S  S S  S  S  S  S  S  S  S  S  S  S  E   E   S   S  
---------------------------------------------12--14--15p-12-|
---------------------10-12-13-12-10-12-13-15----------------|
--9-11-12-11-9-11-12----------------------------------------|
------------------------------------------------------------|
------------------------------------------------------------|
------------------------------------------------------------|


   Q.      Q     Q    E                             H        E  E  E  E   
---L-------L\------------|-----------|-----------|-----------------------|
-------------------------|-----------|-----------|-----------------------|
-------------------------|-----------|-----------|--------------9--7--9--|
-------------------------|-----------|-----------|--------------9--9--9--|
-------------------------|-----------|-----------|-----------------------|
-------------------------|-----------|-----------|-----------------------|


  W                                                         
-------------------|-------------------|-------------------|
-------------------|-------------------|-------------------|
--L----------------|-------------------|-------------------|
--L----------------|-------------------|-------------------|
-------------------|-------------------|-------------------|
-------------------|-------------------|-------------------|


  H        E  E  E  E     W                                     
-----------------------|-------------------|-------------------|
-----------------------|-------------------|-------------------|
--------------9--7--9--|--L----------------|-------------------|
--------------9--9--9--|--L----------------|-------------------|
-----------------------|-------------------|-------------------|
-----------------------|-------------------|-------------------|


                      H        E  E  E  E     W                 
-------------------|-----------------------|-------------------|
-------------------|-----------------------|-------------------|
-------------------|--------------9--7--9--|--L----------------|
-------------------|--------------9--9--9--|--L----------------|
-------------------|-----------------------|-------------------|
-------------------|-----------------------|-------------------|


-------------------|-------------------|-------------------|
-------------------|-------------------|-------------------|
-------------------|-------------------|-------------------|
-------------------|-------------------|-------------------|
-------------------|-------------------|-------------------|
-------------------|-------------------|-------------------|


  E  E  E  E   H           E  E  E  H        E     Q    E  E   H         
------------------------|-----------------------|-----------------------|
------------------------|-----------------------|-----------------------|
--9-----9-----12--------|--5--5-----9--------L--|-------9-----12--------|
--9-----9-----12--------|--5--5-----9--------L--|-------9-----12--------|
--7-----7-----10--------|--3--3-----7--------L--|-------7-----10--------|
------------------------|-----------------------|-----------------------|


  E  E  E  H        E     E  E  E  E   H           E  E  E  H        E   
-----------------------|------------------------|-----------------------|
-----------------------|------------------------|-----------------------|
--7--7-----9--------L--|--9-----9-----12--------|--5--5-----9--------L--|
--7--7-----9--------L--|--9-----9-----12--------|--5--5-----9--------L--|
--5--5-----7--------L--|--7-----7-----10--------|--3--3-----7--------L--|
-----------------------|------------------------|-----------------------|


                          PM PM PM PM PM PM PM PM    PM PM PM PM PM PM PM     
  Q    E  E   H           E  E  E  E  E  E  E  E     E  E  E  E  E  E  E  E   
-----------------------|--------------------------|--------------------------|
-----------------------|--------------------------|--------------------------|
-------9-----12--------|--------------------------|--7--7--7--7--7--7--7-----|
-------9-----12--------|-----------------------7--|--7--7--7--7--7--7--7-----|
-------7-----10--------|--5--5--5--5--5--5--5--5--|--5--5--5--5--5--5--5-----|
-----------------------|--------------------------|--------------------------|


  Q    E  E  Q    Q       E  E  E  H        E     E  E  E  E  Q.     E   
-----------------------|-----------------------|------------------------|
-------8-----7---------|--7--7-----5--------L--|--L-----8-----7---------|
-------9-----7---------|--7--7-----5--------L--|--L-----9-----7---------|
-----------------------|-----------------------|------------------------|
-----------------------|-----------------------|------------------------|
-----------------------|-----------------------|------------------------|


  E  E  E   H         E     Q    E  E  Q    Q       E  E  E  H        E   
-------------------------|-----------------------|-----------------------|
--7--7-----10---------L--|-------8-----7---------|--7--7-----5--------L--|
--7--7-----11---------L--|-------9-----7---------|--7--7-----5--------L--|
-------------------------|-----------------------|-----------------------|
-------------------------|-----------------------|-----------------------|
-------------------------|-----------------------|-----------------------|


  E  E  E  E  Q.     E     E  E  E   H         E     Q    E  E  E  Q    E   
------------------------|-------------------------|------------------------|
--L-----8-----7---------|--7--7-----10---------L--|-------8--8--8--8-------|
--L-----9-----7---------|--7--7-----11---------L--|-------9--9--9--9-------|
------------------------|-------------------------|------------------------|
------------------------|-------------------------|------------------------|
------------------------|-------------------------|------------------------|


  E  E  E  Q.     Q       Q    E  E  E  Q    E     E  E  E  Q.     Q     
-----------------------|------------------------|-----------------------|
-----5--5--5------5----|-------7--7--7--7-------|-----8--8--8------8----|
-----5--5--5------5----|-------7--7--7--7-------|-----9--9--9------9----|
-----------------------|------------------------|-----------------------|
-----------------------|------------------------|-----------------------|
-----------------------|------------------------|-----------------------|


  Q     E   E   E   Q    E     E  E  E  Q.     Q       Q    E  E  E  E  E  E   
----------------------------|-----------------------|-------------------------|
-------10--10--10--10-------|-----5--5--5------5----|-------8--8--8--7-----8--|
-------11--11--11--11-------|-----5--5--5------5----|-------9--9--9--7-----9--|
----------------------------|-----------------------|-------------------------|
----------------------------|-----------------------|-------------------------|
----------------------------|-----------------------|-------------------------|


  E  E  E   Q    E  Q       Q    E  E  Q    E   E   
-------------------------|-------------------------|
-----7-----10-------8----|-------------------------|
-----7-----11-------9----|-------------------------|
-------------------------|-------5-----9----L--10--|
-------------------------|-------------------------|
-------------------------|-------------------------|


      |---3--|          |--3--|                                   
   E  S   S  S E  E  E  S  S  S E  E     Q     E  E  Q.       E   
--------------------------------------|--------------------------|
--------------------------------------|--------------------------|
--------------------------------------|--------------------------|
---L--9h-10p-9-7--5--7--5h-7p-5-4-----|--------5-----9------/12--|
-----------------------------------5--|--7~----------------------|
--------------------------------------|--------------------------|


            |----3----|                                       
   E   E  S Q    Q    Q     S  S S    Q     E  E  Q.      E   
-----------------------------------|-------------------------|
-----------------------------------|-------------------------|
-----------------------------------|-------------------------|
---L--10----9----7----9----10p-9-7-|--9b----5-----9------10--|
-----------------------------------|-------------------------|
-----------------------------------|-------------------------|


      |---3--|          |--3--|                               
   E  S   S  S E  E  E  S  S  S E  E     Q    E  E  H         
--------------------------------------|----------------------|
--------------------------------------|----------------------|
--------------------------------------|----------------------|
---L--9h-10p-9-7--5--7--5h-7p-5-4-----|-------5-----9--------|
-----------------------------------5--|--7-------------------|
--------------------------------------|----------------------|


  PM PM PM PM PM PM PM PM    PM PM PM PM PM PM PM                             
  E  E  E  E  E  E  E  E     E  E  E  E  E  E  E  E     Q    E  E  Q    Q     
--------------------------|--------------------------|-----------------------|
--------------------------|--------------------------|-------8-----7---------|
--------------------------|--7--7--7--7--7--7--7-----|-------9-----7---------|
-----------------------7--|--7--7--7--7--7--7--7-----|-----------------------|
--5--5--5--5--5--5--5--5--|--5--5--5--5--5--5--5-----|-----------------------|
--------------------------|--------------------------|-----------------------|


  E  E  E  H        E     E  E  E  E  Q.     E     E  E  E   H         E   
-----------------------|------------------------|-------------------------|
--7--7-----5--------L--|--L-----8-----7---------|--7--7-----10---------L--|
--7--7-----5--------L--|--L-----9-----7---------|--7--7-----11---------L--|
-----------------------|------------------------|-------------------------|
-----------------------|------------------------|-------------------------|
-----------------------|------------------------|-------------------------|


  Q    E  E  Q    Q       E  E  E  H        E     E  E  E  E  Q.     E   
-----------------------|-----------------------|------------------------|
-------8-----7---------|--7--7-----5--------L--|--L-----8-----7---------|
-------9-----7---------|--7--7-----5--------L--|--L-----9-----7---------|
-----------------------|-----------------------|------------------------|
-----------------------|-----------------------|------------------------|
-----------------------|-----------------------|------------------------|


  E  E  E   H         E     Q    E  E  E  Q    E     E  E  E  Q.     E  E   
-------------------------|------------------------|------------------------|
--7--7-----10---------L--|-------8--8--8--8-------|-----5--5--5------5-----|
--7--7-----11---------L--|-------9--9--9--9-------|-----5--5--5------5-----|
-------------------------|------------------------|------------------------|
-------------------------|------------------------|------------------------|
-------------------------|------------------------|------------------------|


  Q    E  E  E  Q    E     E  E  E  Q.     Q       Q     E   E   E   Q    E   
------------------------|-----------------------|----------------------------|
-------7--7--7--7-------|-----8--8--8------8----|-------10--10--10--10-------|
-------7--7--7--7-------|-----9--9--9------9----|-------11--11--11--11-------|
------------------------|-----------------------|----------------------------|
------------------------|-----------------------|----------------------------|
------------------------|-----------------------|----------------------------|


  E  E  E  Q.     Q       Q    E  E  E  Q    E     E  E  E   Q    E  Q     
-----------------------|------------------------|-------------------------|
-----5--5--5------5----|-------8--8--8--7----8--|-----7-----10-------8----|
-----5--5--5------5----|-------9--9--9--7----9--|-----7-----11-------9----|
-----------------------|------------------------|-------------------------|
-----------------------|------------------------|-------------------------|
-----------------------|------------------------|-------------------------|


-------------------|-------------------||
-------------------|-------------------||
-------------------|-------------------||
-------------------|-------------------||
-------------------|-------------------||
-------------------|-------------------||





======================================================================
======================================================================



Guitar 3



E||-------|-------|-------|-------|-------|-------|-------|-------|-------|
B||-------|-------|-------|-------|-------|-------|-------|-------|-------|
G||-------|-------|-------|-------|-------|-------|-------|-------|-------|
D||-------|-------|-------|-------|-------|-------|-------|-------|-------|
A||-------|-------|-------|-------|-------|-------|-------|-------|-------|
E||-------|-------|-------|-------|-------|-------|-------|-------|-------|


-------|-------|-------|-------|-------|-------|-------|-------|-------|-------|
-------|-------|-------|-------|-------|-------|-------|-------|-------|-------|
-------|-------|-------|-------|-------|-------|-------|-------|-------|-------|
-------|-------|-------|-------|-------|-------|-------|-------|-------|-------|
-------|-------|-------|-------|-------|-------|-------|-------|-------|-------|
-------|-------|-------|-------|-------|-------|-------|-------|-------|-------|


-------|-------|-------|-------|-------|-------|-------|-------|-------|-------|
-------|-------|-------|-------|-------|-------|-------|-------|-------|-------|
-------|-------|-------|-------|-------|-------|-------|-------|-------|-------|
-------|-------|-------|-------|-------|-------|-------|-------|-------|-------|
-------|-------|-------|-------|-------|-------|-------|-------|-------|-------|
-------|-------|-------|-------|-------|-------|-------|-------|-------|-------|


  Q    E  E   H           E  E  E  H        E     Q    E  E   H         
-----------------------|-----------------------|-----------------------|
-----------------------|-----------------------|-----------------------|
-------9-----12--------|--5--5-----9--------L--|-------9-----12--------|
-------9-----12--------|--5--5-----9--------L--|-------9-----12--------|
-------7-----10--------|--3--3-----7--------L--|-------7-----10--------|
-----------------------|-----------------------|-----------------------|


  E  E  E  H        E     Q    E  E   H           E  E  E  H        E   
-----------------------|-----------------------|-----------------------|
-----------------------|-----------------------|-----------------------|
--7--7-----9--------L--|-------9-----12--------|--5--5-----9--------L--|
--7--7-----9--------L--|-------9-----12--------|--5--5-----9--------L--|
--5--5-----7--------L--|-------7-----10--------|--3--3-----7--------L--|
-----------------------|-----------------------|-----------------------|


                          PM PM PM PM PM PM PM PM    PM PM PM PM PM PM PM     
  Q    E  E   H           E  E  E  E  E  E  E  E     E  E  E  E  E  E  E  E   
-----------------------|--------------------------|--------------------------|
-----------------------|--------------------------|--------------------------|
-------9-----12--------|--------------------------|--------------------------|
-------9-----12--------|--------------------------|--------------------------|
-------7-----10--------|--5--5--5--5--5--5--5--5--|--5--5--5--5--5--5--5--7--|
-----------------------|--------------------------|--------------------------|


-------|-------|-------|-------|-------|-------|-------|-------|-------|-------|
-------|-------|-------|-------|-------|-------|-------|-------|-------|-------|
-------|-------|-------|-------|-------|-------|-------|-------|-------|-------|
-------|-------|-------|-------|-------|-------|-------|-------|-------|-------|
-------|-------|-------|-------|-------|-------|-------|-------|-------|-------|
-------|-------|-------|-------|-------|-------|-------|-------|-------|-------|


                                                  Q    E  E   H         
-------|-------|-------|-------|-------|-------|-----------------------|
-------|-------|-------|-------|-------|-------|-----------------------|
-------|-------|-------|-------|-------|-------|-------9-----12--------|
-------|-------|-------|-------|-------|-------|-------9-----12--------|
-------|-------|-------|-------|-------|-------|-------7-----10--------|
-------|-------|-------|-------|-------|-------|-----------------------|


  E  E  E  H        E     Q    E  E   H           E  E  E  H        E   
-----------------------|-----------------------|-----------------------|
-----------------------|-----------------------|-----------------------|
--5--5-----9--------L--|-------9-----12--------|--7--7-----9--------L--|
--5--5-----9--------L--|-------9-----12--------|--7--7-----9--------L--|
--3--3-----7--------L--|-------7-----10--------|--5--5-----7--------L--|
-----------------------|-----------------------|-----------------------|


  Q    E  E   H           E  E  E  H        E     Q    E  E   H         
-----------------------|-----------------------|-----------------------|
-----------------------|-----------------------|-----------------------|
-------9-----12--------|--5--5-----9--------L--|-------9-----12--------|
-------9-----12--------|--5--5-----9--------L--|-------9-----12--------|
-------7-----10--------|--3--3-----7--------L--|-------7-----10--------|
-----------------------|-----------------------|-----------------------|


  PM PM PM PM PM PM PM PM    PM PM PM PM PM PM PM             
  E  E  E  E  E  E  E  E     E  E  E  E  E  E  E  E           
--------------------------|--------------------------|-------|
--------------------------|--------------------------|-------|
--------------------------|--------------------------|-------|
--------------------------|--------------------------|-------|
--5--5--5--5--5--5--5--5--|--5--5--5--5--5--5--5--7--|-------|
--------------------------|--------------------------|-------|


   <                                                           
   W                    W                    W                 
--------------------|--------------------|--------------------|
--12----------------|---L----------------|---L----------------|
--------------------|--------------------|--------------------|
--------------------|--------------------|--------------------|
--------------------|--------------------|--------------------|
--------------------|--------------------|--------------------|


   <                                                           
   W                    W                    W                 
--------------------|--------------------|--------------------|
--------------------|--------------------|--------------------|
--11----------------|---L----------------|---L----------------|
--------------------|--------------------|--------------------|
--------------------|--------------------|--------------------|
--------------------|--------------------|--------------------|


                                    <                                      
   Q     Q     H                    W                    W                 
------------------------|-------|--------------------|--------------------|
------------------------|-------|--12----------------|---L----------------|
---L-----L\-------------|-------|--------------------|--------------------|
------------------------|-------|--------------------|--------------------|
------------------------|-------|--------------------|--------------------|
------------------------|-------|--------------------|--------------------|


                        <                                      
   W                    W                    W                 
--------------------|--------------------|--------------------|
---L----------------|--------------------|--------------------|
--------------------|--11----------------|---L----------------|
--------------------|--------------------|--------------------|
--------------------|--------------------|--------------------|
--------------------|--------------------|--------------------|


   W                    Q     H.              E  E  E  E   H         
--------------------|----------------------|------------------------|
--------------------|----------------------|------------------------|
---L----------------|----------------------|--9-----9-----12--------|
--------------------|----------------------|--9-----9-----12--------|
--------------------|----------------------|--7-----7-----10--------|
--------------------|--12\-----------------|------------------------|


  E  E  E  H        E     Q    E  E   H           E  E  E  H        E   
-----------------------|-----------------------|-----------------------|
-----------------------|-----------------------|-----------------------|
--5--5-----9--------L--|-------9-----12--------|--7--7-----9--------L--|
--5--5-----9--------L--|-------9-----12--------|--7--7-----9--------L--|
--3--3-----7--------L--|-------7-----10--------|--5--5-----7--------L--|
-----------------------|-----------------------|-----------------------|


  E  E  E  E   H           E  E  E  H        E     Q    E  E   H         
------------------------|-----------------------|-----------------------|
------------------------|-----------------------|-----------------------|
--9-----9-----12--------|--5--5-----9--------L--|-------9-----12--------|
--9-----9-----12--------|--5--5-----9--------L--|-------9-----12--------|
--7-----7-----10--------|--3--3-----7--------L--|-------7-----10--------|
------------------------|-----------------------|-----------------------|


  PM PM PM PM PM PM PM PM    PM PM PM PM PM PM PM                              
  E  E  E  E  E  E  E  E     E  E  E  E  E  E  E  E     Q    E  Q    E  E  E   
--------------------------|--------------------------|------------------------|
--------------------------|--------------------------|------------------------|
--------------------------|--------------------------|------------------------|
--------------------------|--------------------------|----------9-------------|
--5--5--5--5--5--5--5--5--|--5--5--5--5--5--5--5--7--|----------7----7--7--7--|
--------------------------|--------------------------|------------------------|


   E  E  E  E   E  E  E  E     Q.     Q    E  E  E   
----------------------------|-----------------------|
----------------------------|-----------------------|
----------------------------|-----------------------|
---9-----9------9--------9--|--L------9-------------|
--10--7--9--7--10--7--7--7--|--L------7----7--7--7--|
----------------------------|-----------------------|


   E  E  E  E   E  E  E  E     Q.     Q    E  E  E   
----------------------------|-----------------------|
----------------------------|-----------------------|
----------------------------|-----------------------|
---9-----9------9--------9--|--L------9-------------|
--10--7--9--7--10--7--7--7--|--L------7----7--7--7--|
----------------------------|-----------------------|


   E  E  E  E   E  E  E  E     Q.     Q    E  E  E   
----------------------------|-----------------------|
----------------------------|-----------------------|
----------------------------|-----------------------|
---9-----9------9--------9--|--L------9-------------|
--10--7--9--7--10--7--7--7--|--L------7----7--7--7--|
----------------------------|-----------------------|


   E  E  E  E   E  E  E  E     Q.     Q    E  E  E   
----------------------------|-----------------------|
----------------------------|-----------------------|
----------------------------|-----------------------|
---9-----9------9--------9--|--L------9-------------|
--10--7--9--7--10--7--7--7--|--L------7----7--7--7--|
----------------------------|-----------------------|


   E  E  E  E   E  E  E  E     Q.     Q    E  E  E   
----------------------------|-----------------------|
----------------------------|-----------------------|
----------------------------|-----------------------|
---9-----9------9--------9--|--L------9-------------|
--10--7--9--7--10--7--7--7--|--L------7----7--7--7--|
----------------------------|-----------------------|


   E  E  E  E   E  E  E  E     Q.     Q    E  E  E   
----------------------------|-----------------------|
----------------------------|-----------------------|
----------------------------|-----------------------|
---9-----9------9--------9--|--L------9-------------|
--10--7--9--7--10--7--7--7--|--L------7----7--7--7--|
----------------------------|-----------------------|


   E  E  E  E   E  E  E  E     Q.     Q    E  E  E   
----------------------------|-----------------------|
----------------------------|-----------------------|
----------------------------|-----------------------|
---9-----9------9--------9--|--L------9-------------|
--10--7--9--7--10--7--7--7--|--L------7----7--7--7--|
----------------------------|-----------------------|


   E  E  E  E   E  E  E  E     Q    E  E   H           E  E  E  H        E   
----------------------------|-----------------------|-----------------------|
----------------------------|-----------------------|-----------------------|
----------------------------|-------9-----12--------|--5--5-----9--------L--|
---9-----9------9--------9--|-------9-----12--------|--5--5-----9--------L--|
--10--7--9--7--10--7--7--7--|-------7-----10--------|--3--3-----7--------L--|
----------------------------|-----------------------|-----------------------|


  Q    E  E   H           E  E  E  H        E     Q    E  E   H         
-----------------------|-----------------------|-----------------------|
-----------------------|-----------------------|-----------------------|
-------9-----12--------|--7--7-----9--------L--|-------9-----12--------|
-------9-----12--------|--7--7-----9--------L--|-------9-----12--------|
-------7-----10--------|--5--5-----7--------L--|-------7-----10--------|
-----------------------|-----------------------|-----------------------|


                                                  PM PM PM PM PM PM PM PM  
  E  E  E  H        E     Q    E  E   H           E  E  E  E  E  E  E  E   
-----------------------|-----------------------|--------------------------|
-----------------------|-----------------------|--------------------------|
--5--5-----9--------L--|-------9-----12--------|--------------------------|
--5--5-----9--------L--|-------9-----12--------|--------------------------|
--3--3-----7--------L--|-------7-----10--------|--5--5--5--5--5--5--5--5--|
-----------------------|-----------------------|--------------------------|


  PM PM PM PM PM PM PM                              
  E  E  E  E  E  E  E  E     Q    E  Q    E  E  E   
--------------------------|------------------------|
--------------------------|------------------------|
--------------------------|------------------------|
--------------------------|----------9-------------|
--5--5--5--5--5--5--5--7--|----------7----7--7--7--|
--------------------------|------------------------|


   E  E  E  E   E  E  E  E     Q.     Q    E  E  E   
----------------------------|-----------------------|
----------------------------|-----------------------|
----------------------------|-----------------------|
---9-----9------9--------9--|--L------9-------------|
--10--7--9--7--10--7--7--7--|--L------7----7--7--7--|
----------------------------|-----------------------|


   E  E  E  E   E  E  E  E     Q.     Q    E  E  E   
----------------------------|-----------------------|
----------------------------|-----------------------|
----------------------------|-----------------------|
---9-----9------9--------9--|--L------9-------------|
--10--7--9--7--10--7--7--7--|--L------7----7--7--7--|
----------------------------|-----------------------|


   E  E  E  E   E  E  E  E     Q.     Q    E  E  E   
----------------------------|-----------------------|
----------------------------|-----------------------|
----------------------------|-----------------------|
---9-----9------9--------9--|--L------9-------------|
--10--7--9--7--10--7--7--7--|--L------7----7--7--7--|
----------------------------|-----------------------|


   E  E  E  E   E  E  E  E     Q.     Q    E  E  E   
----------------------------|-----------------------|
----------------------------|-----------------------|
----------------------------|-----------------------|
---9-----9------9--------9--|--L------9-------------|
--10--7--9--7--10--7--7--7--|--L------7----7--7--7--|
----------------------------|-----------------------|


   E  E  E  E   E  E  E  E     Q.     Q    E  E  E   
----------------------------|-----------------------|
----------------------------|-----------------------|
----------------------------|-----------------------|
---9-----9------9--------9--|--L------9-------------|
--10--7--9--7--10--7--7--7--|--L------7----7--7--7--|
----------------------------|-----------------------|


   E  E  E  E   E  E  E  E     Q.     Q    E  E  E   
----------------------------|-----------------------|
----------------------------|-----------------------|
----------------------------|-----------------------|
---9-----9------9--------9--|--L------9-------------|
--10--7--9--7--10--7--7--7--|--L------7----7--7--7--|
----------------------------|-----------------------|


   E  E  E  E   E  E  E  E     Q.     Q    E  E  E   
----------------------------|-----------------------|
----------------------------|-----------------------|
----------------------------|-----------------------|
---9-----9------9--------9--|--L------9-------------|
--10--7--9--7--10--7--7--7--|--L------7----7--7--7--|
----------------------------|-----------------------|


   E  E  E  E   E  E  E  E                    
----------------------------|-------|-------||
----------------------------|-------|-------||
----------------------------|-------|-------||
---9-----9------9--------9--|-------|-------||
--10--7--9--7--10--7--7--7--|-------|-------||
----------------------------|-------|-------||




Duration Legend
---------------
W - whole
H - half
Q - quarter
E - 8th
S - 16th
T - 32nd
X - 64th
. - note dotted
|-n-|  - n-tuplets


Tablature Legend
----------------
L - tied note
x - dead note
g - grace note
(n) - ghost note
> - accentuded note
NH - natural harmonic
AH - artificial harmonic
TH - tapped harmonic
SH - semi harmonic
PH - pitch harmonic
h - hammer on
p - pull off
b - bend
br - bendRelease
pb - preBend
pbr - preBendRelease
brb - bendReleaseBend
\n/ - tremolo bar dip
\n - tremolo bar dive
-/n - tremolo bar Release up
/n\ - tremolo bar inverted dip
/n - tremolo bar return
-\n - tremolo bar Release down
S - shift slide
s - legato slide
/ -  slide into from below or out of upwards
\ -  slide into from above or out of downwards
~ - vibrato
W - wide vibrato
tr - trill
TP - tremolo picking
T - tapping
S - slap
P - pop
< - fade in
^ - brush up
v - brush down

comments
We did not receive enough feedback on this tab! Please rate:
print report bad tab
1 2 3 4 5
I want to post or [tab]
guest
You may want to rate the tab now too:
select rating
Please do not post tabs as comments. Select "correction" instead!