Oops, an error
Loading. Please wait.

Desperado Tab

ver4
ver4

Whole song

Interactive

More versions @911Tabs.com
23,339 views 24 this week
no commentswrite comment
1 2 3 4 5
excellent!
x 2
add to favorites launch autoscroll
font size
0
reset
Autoscroll
+/-
esc
set tempo
stop
WARNING: You are trying to view
                                    content from Ultimate-Guitar.com
                                    in an unauthorized application,
                                    which is prohibited.

                                    Please use an official Ultimate
                                    Guitar Tabs application for iPhone,
                                    iPad or Android to access legitimate
                                    chords, guitar, bass, and drum tabs
                                    from Ultimate-Guitar.com database.

                                    Type "ultimate guitar tabs" in Apple
                                    App Store's or Android Market's
                                    search to find the application.
Band: Eagles
Song: Desperado


Piano part transcribed for guitar...


         Q      Q     Q     Q       Q     Q     Q     Q     
E||------------10----------12----|--L----10----------------|
B||--10g12-----------12----12----|--L----------12----------|
G||----(12)----------------10----|--L----------------12----|
D||-----12-----------------------|-------------------------|
A||-----10------------L----10----|--L----------------------|
E||------------------------------|-------------------------|


    Q    Q    Q     Q       Q    H        Q     
-------------------------|---------------------|
---------8---------10----|--L----8-------------|
--8g9---------9-----8----|--L-------------0----|
-------------------------|---------------------|
-------------------------|---------------------|
----8---------L-----8----|-------L-------------|


                           
    Q                   Q    Q    Q       Q    H        Q     
----------------------------------0----|--L------------------|
------------------------3---------0----|--L----3-------------|
--2g4------------------------4----0----|--L-------------4----|
---------------------------------------|----------------5----|
---------------------------------------|---------------------|
----3------------------------L----0----|--L-------------L----|


  Q    Q    Q    Q       Q    H        Q       H        H         
----------------------|---------------------|--------------------|
----------------------|---------------------|--------------------|
--4----2---------2----|--L----L-------------|--------------------|
--5---------5----4----|--L----L--------0----|--L-----------------|
--0---------L----5----|--L----L-------------|--------------------|
----------------------|---------------------|--------------------|


  H        H           H        H           H        H         
--7--------7--------|--5--------5--------|--3--------3--------|
--8--------8--------|--6--------6--------|--5--------5--------|
--7--------7--------|--7--------7--------|--5--------5--------|
--5--------5--------|--5--------5--------|--5--------5--------|
--------------------|--------------------|--3--------3--------|
--------------------|--------------------|--------------------|


  H        H           H        H           H        H         
--5--------5--------|--3--------3--------|--3--------3--------|
--4--------4--------|--3--------3--------|--3--------3--------|
--0--------0--------|--4--------4--------|--4--------4--------|
--5--------5--------|--5--------5--------|--2--------2--------|
--3--------3--------|--------------------|--------------------|
--------------------|--------------------|--------------------|


   H          H            H        H           H         H          
--------------0---------|--2--------2--------|--3---------3---------|
---2----------2---------|--1--------1--------|--3---------3---------|
---0----------0---------|--2--------2--------|--4---------4---------|
--(2)--------(2)--------|--0--------0--------|----------------------|
---0----------0---------|--------------------|----------------------|
------------------------|--------------------|--3--------(3)--------|


  H         H            H        H           H        H         
--3---------3---------|--0--------0--------|--3--------3--------|
--1---------1---------|--1--------1--------|--4--------4--------|
--2---------2---------|--0--------0--------|--2--------2--------|
----------------------|--2--------2--------|--------------------|
----------------------|--3--------3--------|--3--------3--------|
--3--------(3)--------|--------------------|--------------------|


  H        H           H        H            H         H         
--3--------2--------|--3--------3--------|-------------2--------|
--3--------0--------|--3--------3--------|---2---------1--------|
--4--------2--------|--4--------4--------|---0---------2--------|
--0--------1--------|--2--------2--------|--(2)--------0--------|
--------------------|--------------------|---0------------------|
--------------------|--------------------|----------------------|


  H         H             H          H            H        H         
----------------------|------------------------|--------------------|
--3---------3---------|---3----------3---------|--3--------3--------|
--4---------4---------|---2----------2---------|--0--------0--------|
----------------------|---0---------(0)--------|--2--------2--------|
----------------------|------------------------|--2--------2--------|
--3--------(3)--------|--(2)--------(2)--------|--0--------0--------|


  H        Q    Q       H        Q    Q       H        Q    Q     
--2--------2---------|--0--------0---------|--3------------------|
--3--------3---------|--1--------1---------|--3--------3---------|
--2--------2---------|--0--------0---------|--0--------2---------|
--4--------4---------|--2--------2----0----|--0--------4---------|
--2--------2---------|--3--------3---------|----------------2----|
----------------3----|---------------------|--3--------2---------|


  H        H           H        Q    Q       H        Q    Q     
--------------------|--0--------0----L----|--3--------3---------|
--3--------0--------|--1--------1----L----|--3--------3---------|
--0--------0--------|--0--------0----0----|--4--------4---------|
--2--------2--------|--2--------2----L----|--5--------5----5----|
--2--------2--------|--3--------3----L----|--5--------5----5----|
--0--------0--------|---------------------|--3--------3----3----|


  Q    Q    Q    Q       H        H           H        Q    Q     
----------------------|--3--------3--------|--2--------2----L----|
--3---------3---------|--3--------3--------|--3--------3----L----|
--2---------2---------|--4--------4--------|--2--------2----L----|
--4----4----4----4----|--2--------2--------|--4--------4----L----|
--5----5----5----5----|--------------------|--2--------2----L----|
--2---------2---------|--------------------|----------------3----|


  H        Q    Q       H        H           H        Q    Q     
--0--------0----L----|--3--------3--------|---------------------|
--1--------1----L----|--3--------3--------|--3--------3----L----|
--0--------0----0----|--0--------0--------|--0--------0----L----|
--2--------2----L----|--0--------0--------|--2--------2----2----|
--3--------3----L----|--------------------|--2--------2----L----|
---------------------|--3--------3--------|--0--------0----L----|


  H        Q    Q       H         H            H        H         
---------------------|----------------------|--------------------|
--2-------------2----|----------------------|--2-----------------|
--0--------0---------|--5---------5---------|--0--------0--------|
--2--------2---------|--4---------2---------|--2--------2--------|
--0--------0---------|--5--------(5)--------|--0--------0--------|
---------------------|----------------------|--------------------|


  H        H           H        H           H        H         
--------------------|--------------------|--0--------0--------|
--------------------|--1--------1--------|--1--------1--------|
--0--------0--------|--2--------2--------|--0--------0--------|
--0--------0--------|--0--------0--------|--2--------2--------|
--2--------2--------|--------------------|--3--------3--------|
--3--------3--------|--3--------3--------|--------------------|


  Q    Q    Q    Q       H        H           H        Q    Q     
--0-------------------|--------------------|--0--------0---------|
--1---------3----1----|--0--------4--------|--3--------3----0----|
--0---------0----0----|--0--------2--------|--0--------0----0----|
--2---------0----2----|--0--------4--------|--2--------2----2----|
--3----3----2----0----|--2--------2--------|--2--------2---------|
----------------------|--3--------2--------|--0--------0---------|


  W                   W                   H        H         
--2----------------|--2----------------|--3--------3--------|
--0----------------|--1----------------|--0--------0--------|
--2----------------|--2----------------|--0--------0--------|
--0----------------|--0----------------|--0--------0--------|
-------------------|-------------------|--2--------2--------|
-------------------|-------------------|--3--------3--------|


  H        Q     S   S   S  S    Q     Q      Q      Q      
--3--------3------------------|----------------------------|
--0--------0------------(0)---|--3-------------------------|
--0--------0--------(0)-------|--2-------------------------|
--0--------0----(0)-----------|--4------------------(4)----|
--2--------2------------------|--5-----------(5)-----------|
--3--------3------------------|--2----(2)------------------|


  H         Q      Q        H        H           H        H         
-------------------------|--0--------0--------|--2--------2--------|
--3----------------------|--3--------3--------|--3--------3--------|
--2----------------------|--0--------0--------|--2--------2--------|
--4---------------(4)----|--2--------2--------|--4--------4--------|
--5--------(5)-----------|--2--------2--------|--2--------2--------|
--2----------------------|--0--------0--------|--------------------|


  H        H           H        E  E  E  E     H        H         
--0--------0--------|--3--------3-----------|-----------5--------|
--1--------1--------|--0--------0--------0--|--8--------8--------|
--0--------0--------|--0--------0-----0-----|--5--------5--------|
--2--------2--------|--0--------0--0--------|--7--------7--------|
--3--------3--------|--2--------2-----------|--5--------5--------|
--------------------|--3--------3-----------|--3--------3--------|


  H        H           H        H           H        H         
--3--------3--------|--------------------|--0--------0--------|
--1--------1--------|--8--------7--------|--1--------1--------|
--0--------0--------|--5--------5--------|--0--------0--------|
--2--------2--------|--7--------7--------|--2--------2--------|
--3--------3--------|--5--------5--------|--3--------3--------|
--------------------|--------------------|--------------------|


  H        Q    Q       H        H           H        Q    E  E   
---------------------|--0--------0--------|--0--------0----------|
--0--------3----0----|--3--------3--------|--1--------1----------|
--0--------2----L----|--0--------0--------|--0--------0----------|
--0--------4----L----|--2--------2--------|--2--------2----0--2--|
--2--------5----L----|--2--------2--------|--3--------3----------|
--3--------2----L----|--0--------0--------|----------------------|


  H        H           H        H           H        H         
--3--------3--------|--3--------3--------|--0--------0--------|
--0--------0--------|--0--------0--------|--3--------3--------|
--0--------0--------|--0--------0--------|--0--------0--------|
--0--------0--------|--0--------0--------|--2--------2--------|
--2--------2--------|--2--------2--------|--2--------2--------|
--3--------3--------|--3--------3--------|--0--------0--------|


  H        H           H        H           H        H         
--2--------2--------|--0--------0--------|--3--------3--------|
--3--------3--------|--1--------1--------|--0--------0--------|
--2--------2--------|--0--------0--------|--0--------0--------|
--4--------4--------|--2--------2--------|--0--------0--------|
--2--------2--------|--3--------3--------|--2--------2--------|
--------------------|--------------------|--3--------3--------|


  Q    Q    Q    Q       Q    Q    Q    Q       H        H         
--3----3----3----3----|--3----3----3----3----|--------------------|
--1----1----1----1----|--1----1----1----1----|--8--------8--------|
--0----0----0----0----|--0----0----0----0----|--5--------5--------|
--2----2----2----2----|--2----2----2----2----|--7--------7--------|
--0----0----0----0----|--0----0----0----0----|--5--------5--------|
----------------------|----------------------|--------------------|


  W                   H        H           H        H         
-------------------|--3--------3--------|--1--------1--------|
--7----------------|--0--------0--------|--1--------3--------|
--5----------------|--0--------0--------|--2--------2--------|
--7----------------|--0--------0--------|--------------------|
--5----------------|--2--------2--------|--0--------2--------|
-------------------|--3--------3--------|--------------------|


  H        H           H        H           H        H         
--0-----------------|--------------------|--------------------|
--1--------1--------|--4--------4--------|--0--------0--------|
--0--------0--------|--2--------2--------|--0--------2--------|
--2--------2--------|--1--------1--------|--0--------1--------|
--3--------3--------|--3--------3--------|--2-----------------|
--------------------|--------------------|--3--------2--------|


  H        H           H        H           H        H         
--0--------0--------|--------------------|--2--------2--------|
--0--------0--------|--2--------2--------|--1--------1--------|
--0--------0--------|--0--------0--------|--2--------2--------|
--2--------2--------|--2--------2--------|--0--------0--------|
--2--------2--------|--0--------0--------|--------------------|
--0--------0--------|--------------------|--------------------|


  H        H           H        H           H        H         
--------------------|--1--------1--------|--0--------0--------|
--0--------0--------|--1--------3--------|--1--------1--------|
--0--------0--------|--2--------2--------|--0--------0--------|
--0--------0--------|--------------------|--2--------2--------|
--2--------2--------|--0--------2--------|--3--------3--------|
--3--------3--------|--------------------|--------------------|


  H        H           H        H           H        H         
--------------------|--3--------2--------|--0--------0--------|
--4--------4--------|--0--------4--------|--0--------0--------|
--2--------2--------|--0--------2--------|--0--------0--------|
--1--------1--------|--0--------4--------|--2--------2--------|
--3--------3--------|--2--------2--------|--2--------2--------|
--------------------|--3--------2--------|--0--------0--------|


  H         H             H          H            W                 
--0--------(3)--------|--(3)--------(3)--------|--3----------------|
--1---------3---------|---1----------1---------|--3----------------|
--0---------0---------|---0----------0---------|--4----------------|
--2---------0---------|---2----------2---------|--0----------------|
--3---------2---------|---0----------0---------|-------------------|
----------------------|------------------------|-------------------|


  W                   W                       Q     Q     Q     Q     
--2----------------|-------------------|-----------10----------12----|
--0----------------|-------------------|--10g12----------12----12----|
--2----------------|-------------------|-----12----------------10----|
--1----------------|-------------------|-----12----------------------|
-------------------|-------------------|-----10-----------L----10----|
-------------------|-------------------|-----------------------------|


   Q     Q     Q     Q         Q    Q    Q     Q        Q    Q    Q     Q     
---L----10----------------|-------------------------|------------------------|
---L----------12----------|---------8---------10----|---L----8----8----------|
---L----------------12----|--8g9---------9-----8----|---L--------------------|
--------------------------|-------------------------|------------------10----|
---L-----------L----------|-------------------------|------------------------|
--------------------------|----8---------L-----8----|---L---------L----------|


  W                                      
-------------------|-------------------||
--0----------------|-------------------||
--0----------------|-------------------||
--0----------------|-------------------||
--2----------------|-------------------||
--3----------------|-------------------||




Duration Legend
---------------
W - whole
H - half
Q - quarter
E - 8th
S - 16th
T - 32nd
X - 64th
. - note dotted
|-n-|  - n-tuplets


Tablature Legend
----------------
L - tied note
x - dead note
g - grace note
(n) - ghost note
> - accentuded note
NH - natural harmonic
AH - artificial harmonic
TH - tapped harmonic
SH - semi harmonic
PH - pitch harmonic
h - hammer on
p - pull off
b - bend
br - bendRelease
pb - preBend
pbr - preBendRelease
brb - bendReleaseBend
\n/ - tremolo bar dip
\n - tremolo bar dive
-/n - tremolo bar Release up
/n\ - tremolo bar inverted dip
/n - tremolo bar return
-\n - tremolo bar Release down
S - shift slide
s - legato slide
/ -  slide into from below or out of upwards
\ -  slide into from above or out of downwards
~ - vibrato
W - wide vibrato
tr - trill
TP - tremolo picking
T - tapping
S - slap
P - pop
< - fade in
^ - brush up
v - brush down
comments
We did not receive enough feedback on this tab! Please rate:
print report bad tab
1 2 3 4 5
I want to post or [tab]
guest
You may want to rate the tab now too:
select rating
Please do not post tabs as comments. Select "correction" instead!