Oops, an error
Loading. Please wait.

Hotel California Tab

ver5
ver5
More versions @911Tabs.com
1,307,085 views 1,172 this week
94 commentsread comments
1 2 3 4 5
excellent!
x 217
Autoscroll
+/-
esc
set tempo
stop
Contributor
Hey! There's an official Ultimate Guitar app which is ideal
for learning songs when you're away from computer. Get the app
WARNING: You are trying to view
                                    content from Ultimate-Guitar.com
                                    in an unauthorized application,
                                    which is prohibited.

                                    Please use an official Ultimate
                                    Guitar Tabs application for iPhone,
                                    iPad or Android to access legitimate
                                    chords, guitar, bass, and drum tabs
                                    from Ultimate-Guitar.com database.

                                    Type "ultimate guitar tabs" in Apple
                                    App Store's or Android Market's
                                    search to find the application.
PROPS GO TO: Daryl Djojo & Maurice vT.

#================================================#
#  The Eagles - Hotel California (Live Version)  #
#      Tabbed by Daryl Djojo & Maurice vT.       #
#================================================#

*|=============================================================(,,)====|*
*|     Yeahhh baby, now this is the correct tab for this song,         |*
*| We hope you guys and galls out there like it (know what I mean?!?). |*
*|       Any comments about the tabs don't hesitate to ask.            |*
*|        Mail it at mvtilburg@msn.com, houdoe en bedankt...           |*
*|=====================================================================|*

Chords
-----------------
     E A D G B e
    +-----------+
B-   7 9 9 7 7 7   
F#   2 4 4 3 2 2   
A    5 7 7 6 5 5
E    0 2 2 1 0 0
G    3 5 5 4 3 3
D    0 0 0 2 3 2
    +-----------+
-----------------


`·.¸¸.·´¯`·.¸¸.·´¯`·.¸¸.·»  INTRO  «·.¸¸.·´¯`·.¸¸.·´¯`·.¸¸.·


Guitar 1 Steel Acoustic (capoed on 7th fret)
   E-                        D                       A- 
e|-0-----------------------|-----------------------|-0---------------------------|
B|-0-----------------------|-3---------------------|-1---------------------------|
G|-0-----------------------|-2---------------------|-2---------------------------|
D|-2-----------------------|-4---------------------|-2---------------------------|
A|-2-----------------------|-0---------------------|-0---------------------------|
E|-0-----------------------|-----------------------|-----------------------------|

Guitar 2 Nylon Acoustic   
                                                                      *~*Repeat*~*
e|----------------0-2-2h3p2|-----------------------|-----0---0---0---0--7-0--10-0|
B|--0-0h2---0-2-3----------|---0-3-2---------------|----0---0---0---0--8----8----|
G|--------3----------------|--2-----2-2h4p2--------|---0---2---4---7--9----9-----|
D|-------------------------|----------------4\2-0/2|--2---4---5---9--------------|
A|-------------------------|-----------------------|-----------------------------|
E|-------------------------|-----------------------|-----------------------------|

Guitar 1 Steel Acoustic (capoed on 7th fret)
            B7
e|------------------2-----|
B|------------------0-----|
G|--------------2---2-----|
D|------------1-----1-----|
A|----------2-------------|
E|------------------------|

Guitar 2 Nylon Acoustic  

e|-7-6-7-9-10-9-10-12--14-|
B|------------------------|
G|------------------------|
D|------------------------|
A|------------------------|
E|------------------------|


*6 BARS OF PERCUSSION THEN PLAY:


Guitar 1 Steel Acoustic (capoed on 7th fret)
   E-                             D                      
e|-0----------------------------|------------------------------------------|
B|-0----------------------------|-3----------------------------------------|
G|-0----------------------------|-2----------------------------------------|
D|-2----------------------------|-4----------------------------------------|
A|-2----------------------------|-0----------------------------------------|
E|-0----------------------------|------------------------------------------|

Guitar 2 Nylon Acoustic

e|--2h3p2-0-2-2-0-2--0----------|------------------0-3-2-3-7-9-10-9-10-12--|
B|------------------3-3-0-------|---0-3-2-2-2-0-2-3------------------------|
G|-----------------------2-2/4--|--2-----2---2-----------------------------|
D|------------------------------|------------------------------------------|
A|------------------------------|------------------------------------------|
E|------------------------------|------------------------------------------|

Guitar 1 Steel Acoustic (capoed on 7th fret)
   A-                                    B7
e|-0-----------------------------------|-2--------------------------------------|
B|-1-----------------------------------|-0--------------------------------------|
G|-2-----------------------------------|-2--------------------------------------|
D|-2-----------------------------------|-1--------------------------------------|
A|-0-----------------------------------|-2--------------------------------------|
E|-------------------------------------|----------------------------------------|

Guitar 2 Nylon Acoustic

e|---0---0---0------0-7-0-10-12-10-----|--9-9h10p9\7h9p7-6----------------------|
B|---0---0---0-----0---------------12--|------------------8-7-7-7-8-7-7---------|
G|---0---2---4----7--------------------|-----------------------------9-7--------|
D|--2---4---5----9---------------------|--------------------------------11-9-8--|
A|-------------------------------------|----------------------------------------|
E|-------------------------------------|----------------------------------------|

Guitar 1 Steel Acoustic (capoed on 7th fret)
   E-                  B7                  D                   E
e|-----------0-------|-------2-----------|-------0-----------|-----------0-------|
B|-------0-----------|-----0---2-4-------|-----3-----3-------|-------0-----------|
G|-----0---0-----0-2-|---2---------------|---2-----2----2----|-----0---0---------|
D|---2---------------|-1-----------------|-0-----------------|---2---------------|
A|-------------------|-------------------|-------------------|-4-----------------|
E|-0-----------------|-------------------|-------------------|-------------------|

Guitar 2 Nylon Acoustic
   B-                  F#7                 A                   E
e|-----------7-------|-----------2-------|-----------5-------|-----------0-------|
B|-------7-----------|-------2-----------|-------5------5----|-------0-----------|
G|-----7---7-----7-9-|-----3---3---------|-----6---6----6----|-----1---1---------|
D|---9---------------|---2---------------|---7---------------|---2---------------|
A|-------------------|-------------------|-------------------|-------------------|
E|-7-----------------|-2-----------------|-5-----------------|-0-----------------|

Guitar 1 Steel Acoustic (capoed on 7th fret)
   C                     G                  A-                       B7
e|-----------0---------|-------3----------|-----------0------------|-----------2-|
B|-------1-------------|-----0-----0------|-------1----------------|-------0-----|
G|-----0---0---------0-|---0-----0--------|-----0---0--------------|---0-2---2---|
D|---2---------2-0h2---|------------------|---2--------------------|-------------|
A|-3-------------------|-2----------------|-0----------------------|-2-----------|
E|---------------------|---------------3--|--------------0---------|-------------|

Guitar 2 Nylon Acoustic
   G                     D                  E                        F#
e|-----------3--5-6-7--|-------2---5-3-2--|-----------0---0---0----|-----------2-|
B|-------3------5-6-7--|-----3---3-------3|-------0----0---0---0---|-------2-----|
G|-----4---4-----------|---2--------------|-----1---1---1---1------|-----3---3---|
D|---5-----------------|-0----------------|---2--------------------|---4---------|
A|---------------------|------------------|------------------------|-------------|
E|-3-------------------|------------------|-0----------------------|-2-----------|

Guitar 1 Steel Acoustic (capoed on 7th fret)
   E-                  B7                  D                   E
e|-----------0-------|----------2--------|-------0-----------|-----------0-------|
B|-------0-----------|-------0-----2--4--|-----3-----3-------|-------0-----------|
G|-----0---0-----0-2-|----2--------------|---2-----2----2----|-----0---0---------|
D|---2---------------|-1-----------------|-0-----------------|---2---------------|
A|-------------------|-------------------|-------------------|-4-----------------|
E|-0-----------------|-------------------|-------------------|-------------------|

Guitar 2 Nylon Acoustic
   B-                  F#7                 A                   E
e|-----------7-------|----------------2--|-----------5-------|-----------0-------|
B|-------7-----------|----------2--------|-------5------5----|-------0-----------|
G|-----7---7-----7-9-|-------3-----3-----|-----6---6----6----|-----1---1---------|
D|---9---------------|----2--------------|---7---------------|---2---------------|
A|-------------------|-------------------|-------------------|-------------------|
E|-7-----------------|-2-----------------|-5-----------------|-0-----------------|
                                                                                 
Guitar 3 Acoustic Bass (6 strings)                                              
                                                                               
e|-------------------|-------------------|-------------------|-------------------|
B|-------------------|-------------------|-------------------|-------------------|
G|-------------------|-------------------|-------------------|-------------------|
D|-0---------2---3---|-2------0h2p0------|------------0--2---|-----0-----2-------|
A|-------------------|----------------4--|-4-----------------|-2-4---4-2---------|
E|-------------------|-------------------|-------------------|-------------------|

Guitar 1 Steel Acoustic (capoed on 7th fret)
   C                     G                  A-                       B7
e|-----------0---------|-------3----------|-----------0------------|-----------2-|
B|-------1-------------|-----0------0-----|-------1----------------|-------0-----|
G|-----0---0---------0-|---0-----0--------|-----0---0--------------|---0-2---2---|
D|---2---------2-0h2---|------------------|---2--------------------|-------------|
A|-3-------------------|-2----------------|-0----------------------|-2-----------|
E|---------------------|---------------3--|--------------0---------|-------------|
                                                                                  
Guitar 2 Nylon Acoustic                                                          
   G                     D                  E                        F#
e|-----------3---------|-------2---5-3-2--|---------0-3-1-0--------|-----------2-|
B|-------3-----------3-|-----3---3-------3|-------0--------3-1-0---|-------2-----|
G|-----4---4---4-2h4---|---2--------------|-----1---------------2-0|-----3---3---|
D|---5-----------------|-0----------------|---2--------------------|---4---------|
A|---------------------|------------------|------------------------|-------------|
E|-3-------------------|------------------|-0----------------------|-2-----------|
                                                                                  
Guitar 3 Acoustic Bass (6 strings)                                                
                                                                                  
e|---------------------|------------------|------------------------|-------------|
B|---------------------|------------------|------------------------|-------------|
G|---------------------|------------------|------------------------|-------------|
D|---------------0-----|-----0-4-0-2/4-0--|-2---------4--5---------|-4h5p4---2-4-|
A|-2---------4---------|-0-4--------------|------------------------|-------------|
E|---------------------|------------------|------------------------|-------------|


`·.¸¸.·´¯`·.¸¸.·´¯`·.¸¸.·»  MAIN PART  «·.¸¸.·´¯`·.¸¸.·´¯`·.¸¸.·


Guitar 1 Steel Acoustic (capoed on 7th fret)
   E-                  B7                  D                   E
e|-----------0-------|-------2-----------|-------0-----------|-----------0-------|
B|-------0-----------|-----0---2-4-------|-----3-----3-------|-------0-----------|
G|-----0---0-----0-2-|---2---------------|---2-----2----2----|-----0---0---------|
D|---2---------------|-1-----------------|-0-----------------|---2---------------|
A|-------------------|-------------------|-------------------|-4-----------------|
E|-0-----------------|-------------------|-------------------|-------------------|

Guitar 2 Nylon Acoustic
   B-                  F#7                 A                   E
e|-----------7-------|-----------2-------|-----------5-------|-----------0-------|
B|-------7-----------|-------2-----------|-------5------5----|-------0-----------|
G|-----7---7-----7-9-|-----3---3---------|-----6---6----6----|-----1---1---------|
D|---9---------------|---2---------------|---7---------------|---2---------------|
A|-------------------|-------------------|-------------------|-------------------|
E|-7-----------------|-2-----------------|-5-----------------|-0-----------------|

Guitar 1 Steel Acoustic (capoed on 7th fret)
   C                     G                  A-                       B7
e|-----------0---------|-------3----------|-----------0------------|-----------2-|
B|-------1-------------|-----0-----0------|-------1----------------|-------0-----|
G|-----0---0---------0-|---0-----0--------|-----0---0--------------|---0-2---2---|
D|---2---------2-0h2---|------------------|---2--------------------|-------------|
A|-3-------------------|-2----------------|-0----------------------|-2-----------|
E|---------------------|---------------3--|--------------0---------|-------------|

Guitar 2 Nylon Acoustic
   G                     D                  E                        F#
e|-----------3--5-6-7--|-------2---5-3-2--|-----------0---0---0----|-----------2-|
B|-------3------5-6-7--|-----3---3-------3|-------0----0---0---0---|-------2-----|
G|-----4---4-----------|---2--------------|-----1---1---1---1------|-----3---3---|
D|---5-----------------|-0----------------|---2--------------------|---4---------|
A|---------------------|------------------|------------------------|-------------|
E|-3-------------------|------------------|-0----------------------|-2-----------|

Guitar 1 Steel Acoustic (capoed on 7th fret)
   E-                  B7                  D                   E
e|-----------0-------|-------2-----------|-------0-----------|-----------0-------|
B|-------0-----------|-----0---2-4-------|-----3-----3-------|-------0-----------|
G|-----0---0-----0-2-|---2---------------|---2-----2----2----|-----0---0---------|
D|---2---------------|-1-----------------|-0-----------------|---2---------------|
A|-------------------|-------------------|-------------------|-4-----------------|
E|-0-----------------|-------------------|-------------------|-------------------|

Guitar 2 Nylon Acoustic
   B-                  F#7                 A                   E
e|-----------7-------|----------------2--|-----------5-------|-----------0-------|
B|-------7-----------|----------2--------|-------5------5----|-------0-----------|
G|-----7---7-----7-9-|-------3-----3-----|-----6---6----6----|-----1---1---------|
D|---9---------------|----2--------------|---7---------------|---2---------------|
A|-------------------|-------------------|-------------------|-------------------|
E|-7-----------------|-2-----------------|-5-----------------|-0-----------------|

Guitar 1 Steel Acoustic (capoed on 7th fret)
   C                     G                  A-                       B7
e|-----------0---------|-------3----------|-----------0------------|-----------2-|
B|-------1-------------|-----0-----0------|-------1----------------|-------0-----|
G|-----0---0---------0-|---0-----0--------|-----0---0--------------|---0-2---2---|
D|---2---------2-0h2---|------------------|---2--------------------|-------------|
A|-3-------------------|-2----------------|-0----------------------|-2-----------|
E|---------------------|---------------3--|--------------0---------|-------------|

Guitar 2 Nylon Acoustic                                                          
   G                     D                  E                        F#
e|-----------3---------|-------2---5-3-2--|---------0-3-1-0--------|-----------2-|
B|-------3-----------3-|-----3---3-------3|-------0--------3-1-0---|-------2-----|
G|-----4---4---4-2h4---|---2--------------|-----1---------------2-0|-----3---3---|
D|---5-----------------|-0----------------|---2--------------------|---4---------|
A|---------------------|------------------|------------------------|-------------|
E|-3-------------------|------------------|-0----------------------|-2-----------|


`·.¸¸.·´¯`·.¸¸.·´¯`·.¸¸.·»  CHORUS I «·.¸¸.·´¯`·.¸¸.·´¯`·.¸¸.·


Guitar 1 Steel Acoustic (capoed on 7th fret)
           C                    G                  B7             E-
e|-------------------0--------|-------3----------|-----------2--|-----------0----|
B|---------------1------------|-----0-----0------|-------0------|-------0--------|
G|-------0-----0---0---------0|---0-----0--------|---0-2---2----|-----0---0------|
D|-1-2-4-----2---------2-0h2--|------------------|--------------|---2------------|
A|---------3------------------|-2----------------|-2------------|-------------0-2|
E|----------------------------|---------------3--|--------------|-0--------------|
                                                                             
Guitar 2 Nylon Acoustic                                                         
           G                    D                  F#             B-        
e|-------------------3--------|-------2---5-3-2--|-----------2--|-----------2----|
B|---------------3-----------3|-----3---3-------3|-------2-----2|-------2------3-|
G|-------------4---4---4-2h4--|---2--------------|-----3---3---3|-----4---4----4-|
D|-----------5----------------|-0----------------|---4----------|---4------------|
A|----------------------------|------------------|--------------|-2--------------|
E|---------3------------------|------------------|-2------------|----------------|
                                                                                
Guitar 3 Acoustic Bass (6 strings)                                              
                                                                                 
e|----------------------------|------------------|--------------|----------------|
B|----------------------------|---3-3-3-3-3/5-3-3|--------------|----------------|
G|----------------------------|---2-2-4-2-4/6-4-2|--------------|----------------|
D|----------------------------|------------------|--------------|-----------0-2-4|
A|---1-2-4-5------------------|------------------|--------------|-2---4----------|
E|-2--------------------------|------------------|--------------|----------------|

Guitar 1 Steel Acoustic (capoed on 7th fret)
   C                     G                   A-                   B7 
e|-----------0---------|-------3-----------|-----------0--------|-----------2----|
B|-------1-------------|-----0-----0-------|-------1------------|-------0--------|
G|-----0---0---------0-|---0-----0---------|-----0---0----------|---0-2---2------|
D|---2---------2-0h2---|-------------------|---2----------------|----------------|
A|-3-------------------|-2-----------------|-0------------------|-2--------------|
E|---------------------|---------------3---|-------------0------|----------------|
                                                                             
Guitar 2 Nylon Acoustic                                                         
   G                     D                   E                    F#         
e|-----------3---------|-------2---5-3-2---|-----------0--0--0--|-----------2----|
B|-------3-----------3-|-----3---3-------3-|-------0----0--0--0-|-------2-----2--|
G|-----4---4---4-2h4---|---2---------------|-----1---1---1--1---|-----3---3---3--|
D|---5-----------------|-0-----------------|---2----------------|---4------------|
A|---------------------|-------------------|--------------------|----------------|
E|-3-------------------|-------------------|-0------------------|-2--------------|
                                                                                
Guitar 3 Acoustic Bass (6 strings)                                              
                                                                                 
e|---------------------|---9--9--9-\7-7-7\5-5-5-|----------------|---------------|
B|---------------------|---10-10-10\8-8-8\7-7-7-|----------------|---------------|
G|---------------------|------------------------|----------------|---------------|
D|---------------------|------------------------|----------------|---------------|
A|---------------------|------------------------|----------------|---------------|
E|---------------------|------------------------|----------------|---------------|


`·.¸¸.·´¯`·.¸¸.·»  Play the MAIN PART again and then CHORUS II  «·.¸¸.·´¯`·.¸¸.·´
                                          
                                                                    
`·.¸¸.·´¯`·.¸¸.·´¯`·.¸¸.·»  CHORUS II «·.¸¸.·´¯`·.¸¸.·´¯`·.¸¸.·      
                                                                
                                     
Guitar 1 Steel Acoustic (capoed on 7th fret)         
           C                    G                  B7             E-   
e|-------------------0--------|-------3----------|-----------2--|-----------0----|
B|---------------1------------|-----0-----0------|-------0------|-------0--------|
G|-------0-----0---0---------0|---0-----0--------|---0-2---2----|-----0---0------|
D|-1-2-4-----2---------2-0h2--|------------------|--------------|---2------------|
A|---------3------------------|-2----------------|-2------------|-------------0-2|
E|----------------------------|---------------3--|--------------|-0--------------|
                                                                        
Guitar 2 Nylon Acoustic                                           
           G                    D                  F#             B-    
e|-------------------3--------|-------2---5-3-2--|-----------2--|-----------2----|
B|---------------3-----------3|-----3---3-------3|-------2-----2|-------2------3-|
G|-------------4---4---4-2h4--|---2--------------|-----3---3---3|-----4---4----4-|
D|-----------5----------------|-0----------------|---4----------|---4------------|
A|----------------------------|------------------|--------------|-2--------------|
E|---------3------------------|------------------|-2------------|----------------|
                                                                       
Guitar 3 Acoustic Bass (6 strings)                                 
                                                                  
e|----------------------------|---9--9--9-\7-7-7\5-5-5-|--------|----------------|
B|----------------------------|---10-10-10\8-8-8\7-7-7-|--------|----------------|
G|----------------------------|------------------------|--------|----------------|
D|----------------------------|------------------------|--------|-----------0-2-4|
A|---1-2-4-5------------------|------------------------|--------|-2---4----------|
E|-2--------------------------|------------------------|--------|----------------|
                                                                    
Guitar 1 Steel Acoustic (capoed on 7th fret)                   
   C                     G                   A-                   B7  
e|-----------0---------|-------3-----------|-----------0--------|-----------2----|
B|-------1-------------|-----0-----0-------|-------1------------|-------0--------|
G|-----0---0---------0-|---0-----0---------|-----0---0----------|---0-2---2------|
D|---2---------2-0h2---|-------------------|---2----------------|----------------|
A|-3-------------------|-2-----------------|-0------------------|-2--------------|
E|---------------------|---------------3---|-------------0------|----------------|
                                                                     
Guitar 2 Nylon Acoustic                                              
   G                     D                   E                    F#        
e|-----------3---------|-------2---5-3-2---|-----------0--0--0--|-----------2----|
B|-------3-----------3-|-----3---3-------3-|-------0----0--0--0-|-------2-----2--|
G|-----4---4---4-2h4---|---2---------------|-----1---1---1--1---|-----3---3---3--|
D|---5-----------------|-0-----------------|---2----------------|---4------------|
A|---------------------|-------------------|--------------------|----------------|
E|-3-------------------|-------------------|-0------------------|-2--------------|
                                                                             
Guitar 3 Acoustic Bass (6 strings)                                        
                                                                        
e|---------------------|---7-7-7\5-5-5\3-3-|--------------------|----------------|
B|---------------------|---8-8-8\7-7-7\5-5-|--------------------|----------------|
G|---------------------|-------------------|--------------------|----------------|
D|---------------------|-------------------|--------------------|----------------|
A|---------------------|-------------------|--------------------|----------------|
E|---------------------|-------------------|--------------------|----------------|


`·.¸¸.·´¯`·.¸¸.·´¯`·.¸¸.·»  MUSIC SOLO  «·.¸¸.·´¯`·.¸¸.·´¯`·.¸¸.·    (Guitar 1)


Guitar 1 Steel Acoustic (capoed on 7th fret)
   E-                  B7                  D                   E        
e|-----------0-------|-------2-----------|-------0-----------|-----------0-------|
B|-------0-----------|-----0---2-4-------|-----3-----3-------|-------0-----------|
G|-----0---0-----0-2-|---2---------------|---2-----2----2----|-----0---0---------|
D|---2---------------|-1-----------------|-0-----------------|---2---------------|
A|-------------------|-------------------|-------------------|-4-----------------|
E|-0-----------------|-------------------|-------------------|-------------------|

   C                     G                  A-                       B7
e|-----------0---------|-------3----------|-----------0------------|-----------2-|
B|-------1-------------|-----0-----0------|-------1----------------|-------0-----|
G|-----0---0---------0-|---0-----0--------|-----0---0--------------|---0-2---2---|
D|---2---------2-0h2---|------------------|---2--------------------|-------------|
A|-3-------------------|-2----------------|-0----------------------|-2-----------|
E|---------------------|---------------3--|--------------0---------|-------------|
                                                                    
                                                                      
Guitar 1 Steel Acoustic (capoed on 7th fret)                          
   E-                  B7                  D                   E         
e|-----------0-------|-------2-----------|-------0-----------|-----------0-------|
B|-------0-----------|-----0---2-4-------|-----3-----3-------|-------0-----------|
G|-----0---0-----0-2-|---2---------------|---2-----2----2----|-----0---0---------|
D|---2---------------|-1-----------------|-0-----------------|---2---------------|
A|-------------------|-------------------|-------------------|-4-----------------|
E|-0-----------------|-------------------|-------------------|-------------------|
                                                                
Guitar 2 Nylon Acoustic                                       
   B-                  F#7                 A                   E    
e|-----------7-------|----------------2--|-----------5-------|-----------0-------|
B|-------7-----------|----------2--------|-------5------5----|-------0-----------|
G|-----7---7-----7-9-|-------3-----3-----|-----6---6----6----|-----1---1---------|
D|---9---------------|----2--------------|---7---------------|---2---------------|
A|-------------------|-------------------|-------------------|-------------------|
E|-7-----------------|-2-----------------|-5-----------------|-0-----------------|
                                                                  
Guitar 1 Steel Acoustic (capoed on 7th fret)                          
   C                     G                  A-                       B7  
e|-----------0---------|-------3----------|-----------0------------|-----------2-|
B|-------1-------------|-----0-----0------|-------1----------------|-------0-----|
G|-----0---0---------0-|---0-----0--------|-----0---0--------------|---0-2---2---|
D|---2---------2-0h2---|------------------|---2--------------------|-------------|
A|-3-------------------|-2----------------|-0----------------------|-2-----------|
E|---------------------|---------------3--|--------------0---------|-------------|
                                                         
Guitar 2 Nylon Acoustic                                                     
   G                     D                  E                        F#    
e|-----------3---------|-------2---5-3-2--|---------0-3-1-0--------|-----------2-|
B|-------3-----------3-|-----3---3-------3|-------0--------3-1-0---|-------2-----|
G|-----4---4---4-2h4---|---2--------------|-----1---------------2-0|-----3---3---|
D|---5-----------------|-0----------------|---2--------------------|---4---------|
A|---------------------|------------------|------------------------|-------------|
E|-3-------------------|------------------|-0----------------------|-2-----------|
                                                                       
                                                                      
`·.¸¸.·´¯`·.¸¸.·´¯`·.¸¸.·»  1st SOLO  «·.¸¸.·´¯`·.¸¸.·´¯`·.¸¸.·    (Guitar 3)  
                                                            
                                                                         
Guitar 1 Steel Acoustic (capoed on 7th fret)                   
             E-                  B7             D                  
e|---------|-----------0-------|-------2------|-------0--------------------------|
B|---------|-------0-----------|-----0---2-4--|-----3-----3----------------------|
G|---------|-----0---0-----0-2-|---2----------|---2-----2----2-------------------|
D|---------|---2---------------|-1------------|-0--------------------------------|
A|---------|-------------------|--------------|----------------------------------|
E|---------|-0-----------------|--------------|----------------------------------|

Guitar 2 Nylon Acoustic                                                  
             B-                  F#7            A                        
e|---------|-----------7-------|------------2-|-----------5----------------------|
B|---------|-------7-----------|-------2------|-------5------5-------------------|
G|---------|-----7---7-----7-9-|-----3----3---|-----6---6----6-------------------|
D|---------|---9---------------|---2----------|---7------------------------------|
A|---------|-------------------|--------------|----------------------------------|
E|---------|-7-----------------|-2------------|-5--------------------------------|
                                                                    
Guitar 3 Acoustic Bass (6 strings)                               
             B-                  F#7            A                       
e|---------|-------------------|-7-5-3-2--9-10|-12-12-12-12-10-9-12-10-9-10-9----|
B|---------|-------------------|--------------|-------------------------------12-|
G|-----6-9-|-9-9-9-9\7-6-9-7-6-|-7-6-4-3------|----------------------------------|
D|-8-9-----|-------------------|--------------|----------------------------------|
A|---------|-------------------|--------------|----------------------------------|
E|---------|-------------------|--------------|----------------------------------|
                                                                         
Guitar 1 Steel Acoustic (capoed on 7th fret)                            
   E                                                                 
e|-----------0--------|                                            
B|-------0------------|                                          
G|-----0---0----------|                                       
D|---2----------------|                                       
A|-4------------------|                                         
E|--------------------|                                     

Guitar 2 Nylon Acoustic
   E 
e|-----------0-------|
B|-------0-----------|
G|-----1---1---------|
D|---2---------------|
A|-------------------|
E|-0-----------------|
                                                                      
Guitar 3 Acoustic Bass (6 strings)                   
   E                                                         
e|--------------------|                               
B|-9-9----------------|                                
G|-----9-9------------|                                    
D|---------9----------|                                      
A|-----------9-9h11---|                                                       
E|------------------2-|                                    
                                                                   
Guitar 1 Steel Acoustic (capoed on 7th fret)                               
   C                       G                A-                       B7      
e|-----------0-----------|-------3--------|-----------0------------|-----------2-|
B|-------1---------------|-----0-----0----|-------1----------------|-------0-----|
G|-----0---0---------0---|---0-----0------|-----0---0--------------|---0-2---2---|
D|---2---------2-0h2-----|----------------|---2--------------------|-------------|
A|-3---------------------|-2--------------|-0----------------------|-2-----------|
E|-----------------------|--------------3-|--------------0---------|-------------|

Guitar 2 Nylon Acoustic                                               
   G                     D                  E                        F#   
e|-----------3---------|-------2---5-3-2--|---------0-3-1-0--------|-2-----------|
B|-------3-----------3-|-----3---3-------3|-------0--------3-1-0---|-2-----------|
G|-----4---4---4-2h4---|---2--------------|-----1---------------2-0|-3-----------|
D|---5-----------------|-0----------------|---2--------------------|-4-----------|
A|---------------------|------------------|------------------------|-4-----------|
E|-3-------------------|------------------|-0----------------------|-2-----------|
                                                                                  
Guitar 3 Acoustic Bass (6 strings)  

   G                       D                E                        F#
e|-----------------------|----------------|-0--0---0---0-----0-0---|-2-2----------
B|-----------------------|----------------|-0---0---0---0----0-0---|-2--2---------
G|-------------------0---|-2/4\2-4p2------|-0----0---0---0---0-0---|-3---3--------
D|-------0---2-0-4-2---4-|-----------4----|-2-----2---2---2--2-----|-4----4-------
A|---0-2---4-------------|----------------|-2----------------2-----|-4-----4------
E|-3---------------------|----------------|-0----------------------|-2------2-----


`·.¸¸.·´¯`·.¸¸.·´¯`·.¸¸.·»  2nd SOLO  «·.¸¸.·´¯`·.¸¸.·´¯`·.¸¸.·    (Guitar 2)


Guitar 1 Steel Acoustic (capoed on 7th fret)
                            E-                              B7 
e|------------------------|-----------0-------------------|-------2--------------|
B|------------------------|-------0-----------------------|-----0---2-4----------|
G|------------------------|-----0---0-----0-2-------------|---2------------------|
D|------------------------|---2---------------------------|-1--------------------|
A|------------------------|-------------------------------|----------------------|
E|------------------------|-0-----------------------------|----------------------|
                                                 
Guitar 2 Nylon Acoustic
                            B-                              F#7
e|------------------------|-------------------------------|----------------/14---|
B|------------------------|-------------------------------|------12-14-12-11-----|
G|------------------------|-------------------------------|----------------------|
D|--------------------9-11|---9-11-11h12p11\9-9h11p9\7-6--|-----9-------------12\|
A|-9-9h11p9\8-9-11-12-----|-12---------------------------9|-8-11-----------------|
E|------------------------|-------------------------------|----------------------|

                                                   
Guitar 3 Acoustic Bass (6 strings)

   F#                    
---2-2---------------------|
---2-2---------------------|
---3-3---------------------|
---4-4---------------------|
---4-----------------------|
---------------------------|

Guitar 1 Steel Acoustic (capoed on 7th fret)
   D                           E                      
e|-------0-------------------|-----------0----------|
B|-----3-----3---------------|-------0--------------|
G|---2-----2----2------------|-----0---0------------|
D|-0-------------------------|---2------------------|
A|---------------------------|-4--------------------|
E|---------------------------|----------------------|

Guitar 2 Nylon Acoustic
   A                           E
e|---------------------------|--------------------0-|
B|---7-7-7-5-5-5-------------|-3-3h5p3-2h3p2-0------|
G|---------------7-7-6-4-2-1-|-----------------2-1--|
D|---------------------------|----------------------|
A|-7-------------------------|----------------------|
E|---------------------------|----------------------|

Guitar 1 Steel Acoustic (capoed on 7th fret)                  
   C                                        G                               
e|-----------0----------------------------|-------3------------------------------|
B|-------1--------------------------------|-----0-----0--------------------------|
G|-----0---0---------0--------------------|---0-----0----------------------------|
D|---2---------2-0h2----------------------|--------------------------------------|
A|-3--------------------------------------|-2------------------------------------|
E|----------------------------------------|---------------3----------------------|

Guitar 2 Nylon Acoustic
   G                                        D
e|----------------------------------0-2-3-|-5-5-5-5/7-5-3/5----------------------|
B|------------------0-0h2p0---0-2-3-------|-7-7-7-7/8-7-5/7---------------0h2h3--|
G|-----0h2p0---0--2---------3-------------|------------------------0h1h2h3-------|
D|-2-4-------4----------------------------|-----------------0h2h3h4--------------|
A|----------------------------------------|--------------------------------------|
E|----------------------------------------|--------------------------------------|
       
Guitar 1 Steel Acoustic (capoed on 7th fret)               
   A-                                   B7                    
e|-----------0------------------------|-----------2------------------------------|
B|-------1----------------------------|-------0----------------------------------|
G|-----0---0--------------------------|---0-2---2--------------------------------|
D|---2--------------------------------|------------------------------------------|
A|-0----------------------------------|-2----------------------------------------|
E|--------------0---------------------|------------------------------------------|

Guitar 2 Nylon Acoustic
   E                                    F#
e|-0----------7-----10-7-6-12-10------|-2-2h3p2\0---0h2-0------------------------|
B|---0---8------8----------------12\--|-----------3-------3-2h3p2p0-2-3p2-3-2----|
G|-----0---9------9-------------------|------------------------------------------|
D|-----------9------------------------|------------------------------------------|
A|------------------------------------|------------------------------------------|
E|------------------------------------|------------------------------------------|


`·.¸¸.·´¯`·.¸¸.·´¯`·.¸¸.·»  OUTRO  «·.¸¸.·´¯`·.¸¸.·´¯`·.¸¸.·

                  
Guitar 1 Steel Acoustic (capoed on 7th fret)                     
                E-            B7                   D             E        
e|------------|-------0-----|-------2------------|----0--------|-----------0-----|
B|------------|----0--------|-----0---2-4--------|---3----3----|-------0---------|
G|------------|---0-0---0-2-|---2----------------|--2---2----2-|-----0---0-------|
D|------------|--2----------|-1------------------|-0-----------|---2-------------|
A|------------|-------------|--------------------|-------------|-4---------------|
E|------------|-0-----------|--------------------|-------------|-----------------|

Guitar 2 Nylon Acoustic 
               (Repeat 5x)                       (Repeat 5x)
e|------------|-2-----------|-0----0----0----4/6-|-0-----------|-------------2/4-|
B|------------|---3---------|---2----2----2------|--2----------|-3---3---3-------|
G|------------|-----4-------|-----3----3---------|---2---------|--4---4---4------|
D|------------|-------------|--------------------|-------------|---6---6---------|
A|------------|-------------|--------------------|-------------|-----------------|
E|------------|-------------|--------------------|-------------|-----------------|
     
Guitar 3 Acoustic Bass (6 strings)                                 
                (Repeat 5x)                       (Repeat 5x)       
e|----------9-|-10----------|-9----9----9--12/14-|-9-----------|-7--7--7--10/12--|
B|-12-11-12---|---12--------|--11---11---11------|--10---------|--9--9--9--------|
G|------------|-----11------|----11---11---------|----9--------|---9--9----------|
D|------------|-------------|--------------------|-------------|-----------------|
A|------------|-------------|--------------------|-------------|-----------------|
E|------------|-------------|--------------------|-------------|-----------------|
                             
Guitar 1 Steel Acoustic (capoed on 7th fret)                   
   C                     G               A-               B7                    
e|-----------0---------|-------3-------|-----------0----|-----------2------------|
B|-------1-------------|-----0-----0---|-------1--------|-------0----------------|
G|-----0---0---------0-|---0-----0-----|-----0---0------|---0-2---2--------------|
D|---2---------2-0h2---|---------------|---2------------|------------------------|
A|-3-------------------|-2-------------|-0--------------|-2----------------------|
E|---------------------|-------------3-|--------------0-|------------------------|

Guitar 2 Nylon Acoustic 
  (Repeat 5x)                           (Repeat 5x)
e|---------------------|---------------|----------------|---------0--2---------2-|
B|-3-------------------|-3--3--3--3/7--|-0--------------|-2--3p2---2--3--3p2-0-3-|
G|--4------------------|--2--2--2------|--0-------------|--3--------3--4----3--4-|
D|---5-----------------|---4--4--------|---2------------|---4---4--------------4-|
A|---------------------|---------------|----------------|----------------------2-|
E|---------------------|---------------|----------------|----------------------2-|
     
Guitar 3 Acoustic Bass (6 strings)                        
  (Repeat 5x)                           (Repeat 5x)       
e|-7-------------------|-5--5--5--8/10-|-3--------------|-0--2--6--7-----------7-|
B|--8------------------|--7--7--7------|--5-------------|--2--3--7--7-----7-11-7-|
G|---7-----------------|---7--7--------|---4------------|---3--4--9--7-7-9-----7-|
D|---------------------|---------------|----------------|----------------------9-|
A|---------------------|---------------|----------------|----------------------9-|
E|---------------------|---------------|----------------|----------------------7-|
comments
print report bad tab
94 comments total. Showing first comments. show 2 bad comments
+5 reply
lemenz70 wrote on May 3 2004, 12:00 am

yea it is the live version

I want to post or [tab]
guest
You may want to rate the tab now too:
select rating
Please do not post tabs as comments. Select "correction" instead!