Oops, an error
Loading. Please wait.

Tequila Sunrise Acoustic Tab

ver1
ver1

Whole song

Interactive

More versions @911Tabs.com
27,787 views 36 this week
8 commentsread comments
1 2 3 4 5
excellent!
x 5
Autoscroll
+/-
esc
set tempo
stop
Contributor
Difficulty
intermediate
Hey! There's an official Ultimate Guitar app which is ideal
for learning songs when you're away from computer. Get the app
WARNING: You are trying to view
                                    content from Ultimate-Guitar.com
                                    in an unauthorized application,
                                    which is prohibited.

                                    Please use an official Ultimate
                                    Guitar Tabs application for iPhone,
                                    iPad or Android to access legitimate
                                    chords, guitar, bass, and drum tabs
                                    from Ultimate-Guitar.com database.

                                    Type "ultimate guitar tabs" in Apple
                                    App Store's or Android Market's
                                    search to find the application.
Tequila Sunrise by Eagles

Timmy^^, timz_unix30@yahoo.com
Enjoy lang po..makirate naman po,,tnx..

                                                               
Rhythm Guitar
      E  S S E  E  E  E  E  E   3x  E  S S E  E  E  E  E  E   
E||---3--3-3-3--0--L--0--0------||--3--3-3-3--0--L--0--0--0--|
B||---0--0-0-0--0--L--0--0--0---||--0--0-0-0--0--L--0--0--0--|
G||*--0--0-0-0--0--L--0--0--0--*||--0--0-0-0--0--L--0--0--0--|
D||*--0--0-0-0--2--L--2--2--0--*||--0--0-0-0--2--L--2--2--2--|
A||---2--2-2-2--2--L--2--2------||--2--2-2-2--2--L--2--2--2--|
E||---3--3-3-3--3--L--3--3------||--3--3-3-3--3--L--3--3--3--|


  E  S S E  E  E  E  E  E     E  S S E  E  E  E  E  E   
--0--0-0-0--0--L--0--0--0--|--2--2-2-2--2--L--2--2--2--|
--1--1-1-1--1--L--1--1--1--|--1--1-1-1--1--L--1--1--1--|
--2--2-2-2--2--L--2--2--2--|--2--2-2-2--2--L--2--2--2--|
--2--2-2-2--2--L--2--2--2--|--0--0-0-0--0--L--0--0--0--|
--0--0-0-0--0--L--0--0--0--|--0--0-0-0--0--L--0--0--0--|
---------------------------|---------------------------|


  E  S S E  E  E  E  E  E     E  S S E  E  E  E  E  E   
--3--3-3-3--0--L--0--0--0--|--3--3-3-3--0--L--0--0--0--|
--0--0-0-0--0--L--0--0--0--|--0--0-0-0--0--L--0--0--0--|
--0--0-0-0--0--L--0--0--0--|--0--0-0-0--0--L--0--0--0--|
--0--0-0-0--2--L--2--2--2--|--0--0-0-0--2--L--2--2--2--|
--2--2-2-2--2--L--2--2--2--|--2--2-2-2--2--L--2--2--2--|
--3--3-3-3--3--L--3--3--3--|--3--3-3-3--3--L--3--3--3--|


  E  S S E  E  E  E  E  E     E  S S E  E  E  E  E  E   
--3--3-3-3--3--L--3--3--3--|--3--3-3-3--3--L--3--3--3--|
--0--0-0-0--0--L--0--0--0--|--0--0-0-0--0--L--0--0--0--|
--0--0-0-0--0--L--0--0--0--|--0--0-0-0--0--L--0--0--0--|
--0--0-0-0--0--L--0--0--0--|--0--0-0-0--0--L--0--0--0--|
--2--2-2-2--2--L--2--2--2--|--2--2-2-2--2--L--2--2--2--|
--3--3-3-3--3--L--3--3--3--|--3--3-3-3--3--L--3--3--3--|


  E  S S E  E  E  E  E  E     E  S S E  E  E  E  E  E   
--2--2-2-2--2--L--2--2--2--|--2--2-2-2--2--L--2--2--2--|
--3--3-3-3--3--L--3--3--3--|--3--3-3-3--3--L--3--3--3--|
--2--2-2-2--2--L--2--2--2--|--2--2-2-2--2--L--2--2--2--|
--0--0-0-0--0--L--0--0--0--|--0--0-0-0--0--L--0--0--0--|
--0--0-0-0--0--L--0--0--0--|--0--0-0-0--0--L--0--0--0--|
---------------------------|---------------------------|


  E  S S E  E  E  E  E  E     E  S S E  E  E  E  E  E   
--0--0-0-0--0--L--0--0--0--|--2--2-2-2--2--L--2--2--2--|
--1--1-1-1--1--L--1--1--1--|--1--1-1-1--1--L--1--1--1--|
--2--2-2-2--2--L--2--2--2--|--2--2-2-2--2--L--2--2--2--|
--2--2-2-2--2--L--2--2--2--|--0--0-0-0--0--L--0--0--0--|
--0--0-0-0--0--L--0--0--0--|--0--0-0-0--0--L--0--0--0--|
---------------------------|---------------------------|


  E  S S E  E  E  E  E  E     E  S S E  E  E  E  E  E   
--3--3-3-3--0--L--0--0--0--|--3--3-3-3--0--L--0--0--0--|
--0--0-0-0--0--L--0--0--0--|--0--0-0-0--0--L--0--0--0--|
--0--0-0-0--0--L--0--0--0--|--0--0-0-0--0--L--0--0--0--|
--0--0-0-0--2--L--2--2--2--|--0--0-0-0--2--L--2--2--2--|
--2--2-2-2--2--L--2--2--2--|--2--2-2-2--2--L--2--2--2--|
--3--3-3-3--3--L--3--3--3--|--3--3-3-3--3--L--3--3--3--|


  E  S S E  E  E  E  E  E     E  S S E  E  E  E  E  E   
--3--3-3-3--3--L--3--3--3--|--3--3-3-3--3--L--3--3--3--|
--0--0-0-0--0--L--0--0--0--|--0--0-0-0--0--L--0--0--0--|
--0--0-0-0--0--L--0--0--0--|--0--0-0-0--0--L--0--0--0--|
--0--0-0-0--0--L--0--0--0--|--0--0-0-0--0--L--0--0--0--|
--2--2-2-2--2--L--2--2--2--|--2--2-2-2--2--L--2--2--2--|
--3--3-3-3--3--L--3--3--3--|--3--3-3-3--3--L--3--3--3--|


  E  S S E  E  E  E  E  E     E  S S E  E  E  E  E  E   
--2--2-2-2--2--L--2--2--2--|--2--2-2-2--2--L--2--2--2--|
--3--3-3-3--3--L--3--3--3--|--3--3-3-3--3--L--3--3--3--|
--2--2-2-2--2--L--2--2--2--|--2--2-2-2--2--L--2--2--2--|
--0--0-0-0--0--L--0--0--0--|--0--0-0-0--0--L--0--0--0--|
--0--0-0-0--0--L--0--0--0--|--0--0-0-0--0--L--0--0--0--|
---------------------------|---------------------------|


  E  S S E  E  E  E  E  E     E  S S E  E  E  E  E  E   
--0--0-0-0--0--L--0--0--0--|--2--2-2-2--2--L--2--2--2--|
--1--1-1-1--1--L--1--1--1--|--1--1-1-1--1--L--1--1--1--|
--2--2-2-2--2--L--2--2--2--|--2--2-2-2--2--L--2--2--2--|
--2--2-2-2--2--L--2--2--2--|--0--0-0-0--0--L--0--0--0--|
--0--0-0-0--0--L--0--0--0--|--0--0-0-0--0--L--0--0--0--|
---------------------------|---------------------------|


  E  S S E  E  E  E  E  E     E  S S E  E  E  E  E  E   
--3--3-3-3--0--L--0--0--0--|--3--3-3-3--0--L--0--0--0--|
--0--0-0-0--0--L--0--0--0--|--0--0-0-0--0--L--0--0--0--|
--0--0-0-0--0--L--0--0--0--|--0--0-0-0--0--L--0--0--0--|
--0--0-0-0--2--L--2--2--2--|--0--0-0-0--2--L--2--2--2--|
--2--2-2-2--2--L--2--2--2--|--2--2-2-2--2--L--2--2--2--|
--3--3-3-3--3--L--3--3--3--|--3--3-3-3--3--L--3--3--3--|


  E  S S E  E  E  E  E  E     E  S S E  E  E  E  E  E   
--0--0-0-0--0--L--0--0--0--|--0--0-0-0--0--L--0--0--0--|
--0--0-0-0--0--L--0--0--0--|--1--1-1-1--1--L--1--1--0--|
--0--0-0-0--0--L--0--0--0--|--0--0-0-0--0--L--0--0--0--|
--2--2-2-2--2--L--2--2--0--|--2--2-2-2--2--L--2--2--0--|
--2--2-2-2--2--L--2--2-----|--3--3-3-3--3--L--3--3-----|
--0--0-0-0--0--L--0--0-----|---------------------------|


  E  S S E  E  E  E  E  E     E  S S E  E  E  E  E  E   
--0--0-0-0--0--L--0--0--0--|--0--0-0-0--0--L--0--0--0--|
--0--0-0-0--0--L--0--0--0--|--1--1-1-1--1--L--1--1--0--|
--0--0-0-0--0--L--0--0--0--|--0--0-0-0--0--L--0--0--0--|
--2--2-2-2--2--L--2--2--0--|--2--2-2-2--2--L--2--2--0--|
--2--2-2-2--2--L--2--2-----|--3--3-3-3--3--L--3--3-----|
--0--0-0-0--0--L--0--0-----|---------------------------|


  E  S S E  E  E  E  E  E     E  S S E  E  E  E  E  E   
--0--0-0-0--0--L--0--0--0--|--0--0-0-0--0--L--0--0--0--|
--0--0-0-0--0--L--0--0--0--|--1--1-1-1--1--L--1--1--0--|
--0--0-0-0--0--L--0--0--0--|--0--0-0-0--0--L--0--0--0--|
--2--2-2-2--2--L--2--2--0--|--2--2-2-2--2--L--2--2--0--|
--2--2-2-2--2--L--2--2-----|--3--3-3-3--3--L--3--3-----|
--0--0-0-0--0--L--0--0-----|---------------------------|


  E  S S E  E  E  E  E  E     E  S S E  E  E  E  E  E   
--0--0-0-0--0--L--0--0--0--|--2--2-2-2--2--L--2--2--2--|
--1--1-1-1--1--L--1--1--1--|--1--1-1-1--1--L--1--1--1--|
--2--2-2-2--2--L--2--2--2--|--2--2-2-2--2--L--2--2--2--|
--2--2-2-2--2--L--2--2--2--|--0--0-0-0--0--L--0--0--0--|
--0--0-0-0--0--L--0--0--0--|--0--0-0-0--0--L--0--0--0--|
---------------------------|---------------------------|


  E  S S E  E  E  E  E  E     E  S S E  E  E  E  E  E   
--3--3-3-3--3--L--3--3--3--|--3--3-3-3--3--L--3--3--3--|
--0--0-0-0--0--L--0--0--0--|--0--0-0-0--0--L--0--0--0--|
--0--0-0-0--0--L--0--0--0--|--0--0-0-0--0--L--0--0--0--|
--0--0-0-0--0--L--0--0--0--|--0--0-0-0--0--L--0--0--0--|
--2--2-2-2--2--L--2--2--2--|--2--2-2-2--2--L--2--2--2--|
--3--3-3-3--3--L--3--3--3--|--3--3-3-3--3--L--3--3--3--|


  E  S S E  E  E  E  E  E     E  S S E  E  E  E  E  E   
--2--2-2-2--2--L--2--2--2--|--2--2-2-2--2--L--2--2--2--|
--3--3-3-3--3--L--3--3--3--|--3--3-3-3--3--L--3--3--3--|
--2--2-2-2--2--L--2--2--2--|--2--2-2-2--2--L--2--2--2--|
--0--0-0-0--0--L--0--0--0--|--0--0-0-0--0--L--0--0--0--|
--0--0-0-0--0--L--0--0--0--|--0--0-0-0--0--L--0--0--0--|
---------------------------|---------------------------|


  E  S S E  E  E  E  E  E     E  S S E  E  E  E  E  E   
--0--0-0-0--0--L--0--0--0--|--2--2-2-2--2--L--2--2--2--|
--1--1-1-1--1--L--1--1--1--|--1--1-1-1--1--L--1--1--1--|
--2--2-2-2--2--L--2--2--2--|--2--2-2-2--2--L--2--2--2--|
--2--2-2-2--2--L--2--2--2--|--0--0-0-0--0--L--0--0--0--|
--0--0-0-0--0--L--0--0--0--|--0--0-0-0--0--L--0--0--0--|
---------------------------|---------------------------|


  E  S S E  E  E  E  E  E     E  S S E  E  E  E  E  E   
--3--3-3-3--0--L--0--0--0--|--0--0-0-0--0--L--0--0--0--|
--0--0-0-0--0--L--0--0--0--|--0--0-0-0--0--L--0--0--0--|
--0--0-0-0--0--L--0--0--0--|--0--0-0-0--0--L--0--0--0--|
--0--0-0-0--2--L--2--2--2--|--2--2-2-2--2--L--2--2--0--|
--2--2-2-2--2--L--2--2--2--|--2--2-2-2--2--L--2--2-----|
--3--3-3-3--3--L--3--3--3--|--0--0-0-0--0--L--0--0-----|


  E  S S E  E  E  E  E  E     E  S S E  E  E  E  E  E   
--3--3-3-3--3--L--3--3--3--|--3--3-3-3--3--L--3--3--3--|
--0--0-0-0--0--L--0--0--0--|--0--0-0-0--0--L--0--0--0--|
--0--0-0-0--0--L--0--0--0--|--0--0-0-0--0--L--0--0--0--|
--0--0-0-0--0--L--0--0--0--|--0--0-0-0--0--L--0--0--0--|
--2--2-2-2--2--L--2--2--2--|--2--2-2-2--2--L--2--2--2--|
--3--3-3-3--3--L--3--3--3--|--3--3-3-3--3--L--3--3--3--|


  E  S S E  E  E  E  E  E     E  S S E  E  E  E  E  E   
--2--2-2-2--2--L--2--2--2--|--2--2-2-2--2--L--2--2--2--|
--3--3-3-3--3--L--3--3--3--|--3--3-3-3--3--L--3--3--3--|
--2--2-2-2--2--L--2--2--2--|--2--2-2-2--2--L--2--2--2--|
--0--0-0-0--0--L--0--0--0--|--0--0-0-0--0--L--0--0--0--|
--0--0-0-0--0--L--0--0--0--|--0--0-0-0--0--L--0--0--0--|
---------------------------|---------------------------|


  E  S S E  E  E  E  E  E     E  S S E  E  E  E  E  E   
--0--0-0-0--0--L--0--0--0--|--2--2-2-2--2--L--2--2--2--|
--1--1-1-1--1--L--1--1--1--|--1--1-1-1--1--L--1--1--1--|
--2--2-2-2--2--L--2--2--2--|--2--2-2-2--2--L--2--2--2--|
--2--2-2-2--2--L--2--2--2--|--0--0-0-0--0--L--0--0--0--|
--0--0-0-0--0--L--0--0--0--|--0--0-0-0--0--L--0--0--0--|
---------------------------|---------------------------|


  E  S S E  E  E  S S E  E     S S Q    S S S S E  Q     
--3--3-3-3--3--3--3-3-3--3--|--3--------3-3-3-----------|
--0--0-0-0--0--0--0-0-0--0--|--0--------0-0-0-----------|
--0--0-0-0--0--0--0-0-0--0--|--0--------0-0-0-----------|
--0--0-0-0--0--0--0-0-0--0--|--0--------0-0-0-----------|
--2--2-2-2--2--2--2-2-2--2--|--2--------2-2-2-----------|
--3--3-3-3--3--3--3-3-3--3--|--3--------3-3-3-----------|


  E  S S E  E  E  E  E  E     E  S S E  E  E  E  E  E   
--3--3-3-3--3--L--3--3--3--|--3--3-3-3--3--L--3--3--3--|
--0--0-0-0--0--L--0--0--0--|--0--0-0-0--0--L--0--0--0--|
--0--0-0-0--0--L--0--0--0--|--0--0-0-0--0--L--0--0--0--|
--0--0-0-0--0--L--0--0--0--|--0--0-0-0--0--L--0--0--0--|
--2--2-2-2--2--L--2--2--2--|--2--2-2-2--2--L--2--2--2--|
--3--3-3-3--3--L--3--3--3--|--3--3-3-3--3--L--3--3--3--|


  E  S S E  E  E  E  E  E     E  S S E  E  E  E  E  E   
--2--2-2-2--2--L--2--2--2--|--2--2-2-2--2--L--2--2--2--|
--3--3-3-3--3--L--3--3--3--|--3--3-3-3--3--L--3--3--3--|
--2--2-2-2--2--L--2--2--2--|--2--2-2-2--2--L--2--2--2--|
--0--0-0-0--0--L--0--0--0--|--0--0-0-0--0--L--0--0--0--|
--0--0-0-0--0--L--0--0--0--|--0--0-0-0--0--L--0--0--0--|
---------------------------|---------------------------|


  E  S S E  E  E  E  E  E     E  S S E  E  E  E  E  E   
--0--0-0-0--0--L--0--0--0--|--2--2-2-2--2--L--2--2--2--|
--1--1-1-1--1--L--1--1--1--|--1--1-1-1--1--L--1--1--1--|
--2--2-2-2--2--L--2--2--2--|--2--2-2-2--2--L--2--2--2--|
--2--2-2-2--2--L--2--2--2--|--0--0-0-0--0--L--0--0--0--|
--0--0-0-0--0--L--0--0--0--|--0--0-0-0--0--L--0--0--0--|
---------------------------|---------------------------|


  E  S S E  E  E  E  E  E     E  S S E  E  E  E  E  E   
--3--3-3-3--3--L--3--3--3--|--3--3-3-3--3--L--3--3--3--|
--0--0-0-0--0--L--0--0--0--|--0--0-0-0--0--L--0--0--0--|
--0--0-0-0--0--L--0--0--0--|--0--0-0-0--0--L--0--0--0--|
--0--0-0-0--0--L--0--0--0--|--0--0-0-0--0--L--0--0--0--|
--2--2-2-2--2--L--2--2--2--|--2--2-2-2--2--L--2--2--2--|
--3--3-3-3--3--L--3--3--3--|--3--3-3-3--3--L--3--3--3--|


  E  S S E  E  E  E  E  E     E  S S E  E  E  E  E  E   
--0--0-0-0--0--L--0--0--0--|--2--2-2-2--2--L--2--2--2--|
--1--1-1-1--1--L--1--1--1--|--3--3-3-3--3--L--3--3--3--|
--2--2-2-2--2--L--2--2--2--|--2--2-2-2--2--L--2--2--2--|
--2--2-2-2--2--L--2--2--2--|--0--0-0-0--0--L--0--0--0--|
--0--0-0-0--0--L--0--0--0--|--0--0-0-0--0--L--0--0--0--|
---------------------------|---------------------------|


  E  S S E  E  E  E  E  E     E  S S E  E  E  E  E  E   
--2--2-2-2--2--L--2--2--2--|--0--0-0-0--0--L--0--0--0--|
--3--3-3-3--3--L--3--3--3--|--0--0-0-0--0--L--0--0--0--|
--4--4-4-4--4--L--4--4--4--|--1--1-1-1--1--L--1--1--1--|
--4--4-4-4--4--L--4--4--4--|--2--2-2-2--2--L--2--2--2--|
--2--2-2-2--2--L--2--2--2--|--2--2-2-2--2--L--2--2--2--|
---------------------------|---------------------------|


  E  S S E  E  E  E  E  E     E  S S E  E  E  E  E  E   
--0--0-0-0--0--L--0--0--0--|--2--2-2-2--2--L--2--2--2--|
--1--1-1-1--1--L--1--1--1--|--4--4-4-4--4--L--4--4--4--|
--2--2-2-2--2--L--2--2--2--|--4--4-4-4--4--L--4--4--4--|
--2--2-2-2--2--L--2--2--2--|--4--4-4-4--4--L--4--4--4--|
--0--0-0-0--0--L--0--0--0--|--2--2-2-2--2--L--2--2--2--|
---------------------------|---------------------------|


  E  S S E  E  E  E  E  E     E  S S E  E  E  E  E  E   
--0--0-0-0--0--L--0--0--0--|--0--0-0-0--0--L--0--0--0--|
--0--0-0-0--0--L--0--0--0--|--2--2-2-2--2--L--2--2--2--|
--0--0-0-0--0--L--0--0--0--|--2--2-2-2--2--L--2--2--2--|
--0--0-0-0--0--L--0--0--0--|--2--2-2-2--2--L--2--2--2--|
--2--2-2-2--2--L--2--2--2--|--0--0-0-0--0--L--0--0--0--|
---------------------------|---------------------------|


  E  S S E  E  E  E  E  E     E  S S E  E  E  E  E  E   
--3--3-3-3--3--L--3--3--3--|--3--3-3-3--3--L--3--3--3--|
--0--0-0-0--0--L--0--0--0--|--0--0-0-0--0--L--0--0--0--|
--0--0-0-0--0--L--0--0--0--|--0--0-0-0--0--L--0--0--0--|
--0--0-0-0--0--L--0--0--0--|--0--0-0-0--0--L--0--0--0--|
--2--2-2-2--2--L--2--2--2--|--2--2-2-2--2--L--2--2--2--|
--3--3-3-3--3--L--3--3--3--|--3--3-3-3--3--L--3--3--3--|


  E  S S E  E  E  E  E  E     E  S S E  E  E  E  E  E   
--2--2-2-2--2--L--2--2--2--|--2--2-2-2--2--L--2--2--2--|
--3--3-3-3--3--L--3--3--3--|--3--3-3-3--3--L--3--3--3--|
--2--2-2-2--2--L--2--2--2--|--2--2-2-2--2--L--2--2--2--|
--0--0-0-0--0--L--0--0--0--|--0--0-0-0--0--L--0--0--0--|
--0--0-0-0--0--L--0--0--0--|--0--0-0-0--0--L--0--0--0--|
---------------------------|---------------------------|


  E  S S E  E  E  E  E  E     E  S S E  E  E  E  E  E   
--0--0-0-0--0--L--0--0--0--|--2--2-2-2--2--L--2--2--2--|
--1--1-1-1--1--L--1--1--1--|--1--1-1-1--1--L--1--1--1--|
--2--2-2-2--2--L--2--2--2--|--2--2-2-2--2--L--2--2--2--|
--2--2-2-2--2--L--2--2--2--|--0--0-0-0--0--L--0--0--0--|
--0--0-0-0--0--L--0--0--0--|--0--0-0-0--0--L--0--0--0--|
---------------------------|---------------------------|


  E  S S E  E  E  E  E  E     E  S S E  E  E  E  E  E   
--3--3-3-3--0--L--0--0--0--|--3--3-3-3--0--L--0--0--0--|
--0--0-0-0--0--L--0--0--0--|--0--0-0-0--0--L--0--0--0--|
--0--0-0-0--0--L--0--0--0--|--0--0-0-0--0--L--0--0--0--|
--0--0-0-0--2--L--2--2--2--|--0--0-0-0--2--L--2--2--2--|
--2--2-2-2--2--L--2--2--2--|--2--2-2-2--2--L--2--2--2--|
--3--3-3-3--3--L--3--3--3--|--3--3-3-3--3--L--3--3--3--|


  E  S S E  E  E  E  E  E     E  S S E  E  E  E  E  E   
--3--3-3-3--0--L--0--0--0--|--3--3-3-3--0--L--0--0--0--|
--0--0-0-0--0--L--0--0--0--|--0--0-0-0--0--L--0--0--0--|
--0--0-0-0--0--L--0--0--0--|--0--0-0-0--0--L--0--0--0--|
--0--0-0-0--2--L--2--2--2--|--0--0-0-0--2--L--2--2--2--|
--2--2-2-2--2--L--2--2--2--|--2--2-2-2--2--L--2--2--2--|
--3--3-3-3--3--L--3--3--3--|--3--3-3-3--3--L--3--3--3--|


  E  S S E  E  E  E  E  E     E  S S E  E  E  E  E  E   
--3--3-3-3--0--L--0--0--0--|--3--3-3-3--0--L--0--0--0--|
--0--0-0-0--0--L--0--0--0--|--0--0-0-0--0--L--0--0--0--|
--0--0-0-0--0--L--0--0--0--|--0--0-0-0--0--L--0--0--0--|
--0--0-0-0--2--L--2--2--2--|--0--0-0-0--2--L--2--2--2--|
--2--2-2-2--2--L--2--2--2--|--2--2-2-2--2--L--2--2--2--|
--3--3-3-3--3--L--3--3--3--|--3--3-3-3--3--L--3--3--3--|


                              v                                      
  E  S S E  E  E  E  E  E     H        H           W                 
--3--3-3-3--0--L--0--0--0--|--3-----------------|-------------------|
--0--0-0-0--0--L--0--0--0--|--0-----------------|-------------------|
--0--0-0-0--0--L--0--0--0--|--0-----------------|-------------------|
--0--0-0-0--2--L--2--2--2--|--0-----------------|-------------------|
--2--2-2-2--2--L--2--2--2--|--2-----------------|-------------------|
--3--3-3-3--3--L--3--3--3--|--3-----------------|-------------------|


  W                                      
-------------------|-------------------||
-------------------|-------------------||
-------------------|-------------------||
-------------------|-------------------||
-------------------|-------------------||
-------------------|-------------------||
Duration Legend
---------------
W - whole
H - half
Q - quarter
E - 8th
S - 16th
T - 32nd
X - 64th
. - note dotted
|-n-|  - n-tuplets
Tablature Legend
----------------
L - tied note
x - dead note
g - grace note
(n) - ghost note
> - accentuded note
NH - natural harmonic
AH - artificial harmonic
TH - tapped harmonic
SH - semi harmonic
PH - pitch harmonic
h - hammer on
p - pull off
b - bend
br - bendRelease
pb - preBend
pbr - preBendRelease
brb - bendReleaseBend
\n/ - tremolo bar dip
\n - tremolo bar dive
-/n - tremolo bar Release up
/n\ - tremolo bar inverted dip
/n - tremolo bar return
-\n - tremolo bar Release down
S - shift slide
s - legato slide
/ -  slide into from below or out of upwards
\ -  slide into from above or out of downwards
~ - vibrato
W - wide vibrato
tr - trill
TP - tremolo picking
T - tapping
S - slap
P - pop
< - fade in
^ - brush up
v - brush down
                                
                                                                 
Overdubs Guitar

      W                 3x  Q    E  E  Q     S S E     W                  
E||---------------------||--------------------------|--------------------|
B||---------------------||-------------3~-----------|--------------------|
G||*-------------------*||-------2--4--------4-2-0--|--2~----------------|
D||*-------------------*||--------------------------|--------------------|
A||---------------------||--------------------------|--------------------|
E||---------------------||--------------------------|--------------------|


  E  S S E  E  E   E  E  E     E  Q    E  Q.     E     Q.     E  Q    Q     
----------------------------|-----------------------|----------------------|
----------------------------|-----3----3--5------5--|--7------7--5----3----|
------------0--0b-----0--2--|--0--------------------|----------------------|
-----0-2-4---------4--------|-----------------------|----------------------|
----------------------------|-----------------------|----------------------|
----------------------------|-----------------------|----------------------|


  W                    H        E  E  E  E     E   E  H.            
--------------------|-----------------------|----------------------|
--------------------|-----------------5-----|--5h--7---------------|
--0~----------------|--------------7-----7--|--7-------------------|
--------------------|-----------------------|----------------------|
--------------------|-----------------------|----------------------|
--------------------|-----------------------|----------------------|


  W                   Q.     E  E  E  E  E     H        H         
-------------------|------------------------|--2-----------------|
-------------------|---------1-----0--------|--3-----------------|
-------------------|---------------------0--|--2-----------------|
-------------------|------------------------|--------------------|
-------------------|------------------------|--------------------|
-------------------|------------------------|--------------------|


  Q    E  E   Q    E  E       Q     E  E   Q    Q       Q    H        Q     
--------------------------|--------------------------|---------------------|
--------------------------|--------------------------|---------------------|
--0-------0-----------0---|--(0)-------0--------0----|--0------------------|
--0-------0h--2-------2h--|---4--------4p--2----0----|---------------------|
--------------------------|--------------------------|---------------------|
--------------------------|--------------------------|--3------------------|


  H        E  E  E  E     E   E  H.              W                 
-----------------------|----------------------|-------------------|
-----------------5-----|--5h--7---------------|-------------------|
--------------7-----7--|--7-------------------|-------------------|
-----------------------|----------------------|-------------------|
-----------------------|----------------------|-------------------|
-----------------------|----------------------|-------------------|


  Q.     E  E  E  E  E     H        H           Q    E  E   Q    E  E    
------------------------|--2-----------------|--------------------------|
---------1-----0--------|--3-----------------|--------------------------|
---------------------0--|--2-----------------|--0-------0-----------0---|
------------------------|--------------------|--0-------0h--2-------2h--|
------------------------|--------------------|--------------------------|
------------------------|--------------------|--------------------------|


   Q     E  E   Q    Q       Q    H        Q       W                 
--------------------------|---------------------|-------------------|
--------------------------|---------------------|-------------------|
--(0)-------0--------0----|--0------------------|-------------------|
---4--------4p--2----0----|---------------------|-------------------|
--------------------------|---------------------|-------------------|
--------------------------|--3------------------|-------------------|


  W                   W                   W                   W                 
-------------------|-------------------|-------------------|-------------------|
-------------------|-------------------|-------------------|-------------------|
-------------------|-------------------|-------------------|-------------------|
-------------------|-------------------|-------------------|-------------------|
-------------------|-------------------|-------------------|-------------------|
-------------------|-------------------|-------------------|-------------------|


  W                   W                   W                 
-------------------|-------------------|-------------------|
-------------------|-------------------|-------------------|
-------------------|-------------------|-------------------|
-------------------|-------------------|-------------------|
-------------------|-------------------|-------------------|
-------------------|-------------------|-------------------|


  H        E  E  E  E     E   E  H.              W                 
-----------------------|----------------------|-------------------|
-----------------5-----|--5h--7---------------|-------------------|
--------------7-----7--|--7-------------------|-------------------|
-----------------------|----------------------|-------------------|
-----------------------|----------------------|-------------------|
-----------------------|----------------------|-------------------|


  Q.     E  E  E  E  E     H        H           Q    E  E   Q    E  E    
------------------------|--2-----------------|--------------------------|
---------1-----0--------|--3-----------------|--------------------------|
---------------------0--|--2-----------------|--0-------0-----------0---|
------------------------|--------------------|--0-------0h--2-------2h--|
------------------------|--------------------|--------------------------|
------------------------|--------------------|--------------------------|


   Q     E  E   Q    Q       Q    H        Q       H        E  E  E  E   
--------------------------|---------------------|-----------------------|
--------------------------|---------------------|-----------------5-----|
--(0)-------0--------0----|--0------------------|--------------7-----7--|
---4--------4p--2----0----|---------------------|-----------------------|
--------------------------|---------------------|-----------------------|
--------------------------|--3------------------|-----------------------|


  E   E  H.              W                   Q.     E  E  E  E  E   
----------------------|-------------------|------------------------|
--5h--7---------------|-------------------|---------1-----0--------|
--7-------------------|-------------------|---------------------0--|
----------------------|-------------------|------------------------|
----------------------|-------------------|------------------------|
----------------------|-------------------|------------------------|


  H        H           E  S S E  E  E  E  E  E     E  E  E  S S S S E  S S E   
--2-----------------|---------------------------|-----------------------------|
--3-----------------|---------------------------|-----0----------------1------|
--2-----------------|---------------2-----0--2--|--0--------0-0-0---0--2------|
--------------------|-----0-2-4--5-----4--------|-------------------0---------|
--------------------|---------------------------|-----------------------------|
--------------------|---------------------------|-----------------------------|


  S S S S S S S S S S S S S S E     E  E  E  E  E  E  Q     
---------------------------------|-------------------------|
--3-3-3-3-3-3-3-3-3-3-3-3-3---5--|-----3-----1-----0-------|
--4-4-4-4-4-4-4-4-4-4-4-4-4---5--|-----4-----2-----0-------|
---------------------------------|-------------------------|
---------------------------------|-------------------------|
---------------------------------|-------------------------|


  S S S S S S S S S S S S S S  E     S S S S S S S S E  S S S S E   
----------------------------------|--------------------------------|
----------------------------------|--------------------------------|
--2-2-2-2-2-2-2-2-2-2-2-2-2-2h-4--|--5---4---3---2------2---1------|
--4-4-4-4-4-4-4-4-4-4-4-4-4-4h-5--|--7---6---5---4------4---3------|
----------------------------------|--------------------------------|
----------------------------------|--------------------------------|


  S S S S S S S S S S S S S S S S    S S S S S S S S S S S S S S S S  
----------------------------------|----------------------------------|
--5-5-5-5-5-5-5-5-8-8-8-8-8-8-8-8-|--3-3-3-3-3-3-3-3-1-1-1-1-1-1-1-1-|
--5-5-5-5-5-5-5-5-9-9-9-9-9-9-9-9-|--4-4-4-4-4-4-4-4-2-2-2-2-2-2-2-2-|
----------------------------------|----------------------------------|
----------------------------------|----------------------------------|
----------------------------------|----------------------------------|


  S S S S S S S S S S S S S S S S    S S S S S S S S S S Q.      
----------------------------------|-----------------------------|
------0-0-0-------0-------1-------|--0---0-0-0---0---0----------|
--0-----------0-------0-------0---|-----------------------------|
--0-------------------------------|-----------------------------|
----------------------------------|-----------------------------|
----------------------------------|-----------------------------|


  W                   E  E  E  E  E  E  E  E     E  E  Q.     E  E  E   
-------------------|--------------------------|------------------------|
-------------------|-----------3--------------|---------------3--------|
-------------------|--------2--------2--------|------------------4-----|
-------------------|--0-----------------0--0--|------------------------|
-------------------|--------------------------|--2---------------------|
-------------------|--------------------------|------------------------|


  E  H        Q    E     E  H        Q    E     W                 
----------------------|----------------------|-------------------|
----------------------|----------------------|-------------------|
----------------------|----------------------|-------------------|
----------------------|----------------------|-------------------|
----------------------|--0-------------------|-------------------|
--0-------------------|----------------------|-------------------|


  W                   E  H        S S S S S S    E  E  H.            
-------------------|--------------------------|---------------------|
-------------------|--------------5-----------|---------------------|
-------------------|------------------5-------|--0------------------|
-------------------|----------------------5---|--0------------------|
-------------------|--0-----------------------|--2------------------|
-------------------|--------------------------|--3------------------|


  H        E  E  E  E     E   E  H.              W                 
-----------------------|----------------------|-------------------|
-----------------5-----|--5h--7---------------|-------------------|
--------------7-----7--|--7-------------------|-------------------|
-----------------------|----------------------|-------------------|
-----------------------|----------------------|-------------------|
-----------------------|----------------------|-------------------|


  Q.     E  E  E  E  E     H        H           E  Q    E  E  Q    E   
------------------------|--2-----------------|------------------------|
---------1-----0--------|--3-----------------|------------------------|
---------------------0--|--2-----------------|------------------------|
------------------------|--------------------|------------------------|
------------------------|--------------------|-------------0-------0--|
------------------------|--------------------|--3-------3-------------|


  E  Q    E  E  Q    E     E  Q    E  E  Q    E     E  Q    E  E  Q    E   
------------------------|------------------------|------------------------|
------------------------|------------------------|------------------------|
------------------------|------------------------|------------------------|
------------------------|------------------------|------------------------|
--2-------2--0-------0--|-------------0-------0--|--2-------2--0-------0--|
------------------------|--3-------3-------------|------------------------|


  E  Q    E  E  Q    E     E  Q    E  E  Q.      
------------------------|-----------------------|
------------------------|-----------------------|
------------------------|-----------------------|
------------------------|-----------------------|
-------------0-------0--|--2-------2--0---------|
--3-------3-------------|-----------------------|


  S S S S S S S S S S S S S S T T T T    H        H           W                 
--3-2-0-------------------------------|--------------------|-------------------|
--------3-1-0-------------------------|--------------------|-------------------|
--------------2-0---------------------|--------------------|-------------------|
------------------4-2-0---------------|--------------------|-------------------|
------------------------3-2-0-2-0---0-|--------------------|-------------------|
----------------------------------3---|--3-----------------|-------------------|


  W                                      
-------------------|-------------------||
-------------------|-------------------||
-------------------|-------------------||
-------------------|-------------------||
-------------------|-------------------||
-------------------|-------------------||
           

Voice

      W                 3x  W                   W                 
E||---------------------||-------------------|-------------------|
B||---------------------||-------------------|-------------------|
G||*-------------------*||-------------------|-------------------|
D||*-------------------*||-------------------|-------------------|
A||---------------------||-------------------|-------------------|
E||---------------------||-------------------|-------------------|


  W                   W                   W                 
-------------------|-------------------|-------------------|
-------------------|-------------------|-------------------|
-------------------|-------------------|-------------------|
-------------------|-------------------|-------------------|
-------------------|-------------------|-------------------|
-------------------|-------------------|-------------------|


  Q    E  E  E  E  E  E     E  E  E  E  E  E  Q       H        E  E  E  E   
-------------------------|-------------------------|-----------------------|
-------0--0--0--0-----1--|--L--0--L----------------|--------------------0--|
-------------------0-----|-----------2--L--0--L----|-----------2--2--L-----|
-------------------------|-------------------------|-----------------------|
-------------------------|-------------------------|-----------------------|
-------------------------|-------------------------|-----------------------|


  E  E  E  E  E  E  E  E     Q    H.              H        E  E  E  E   
--------------------------|--------------------|-----------------------|
--L--1--L-----------------|--------------------|-----------------------|
-----------2--L--0-----2--|--L-----------------|--------------0--L--4--|
--------------------2-----|--------------------|-----------2-----------|
--------------------------|--------------------|-----------------------|
--------------------------|--------------------|-----------------------|


  H        H           W                   H        E  E  E  E   
--------------------|-------------------|-----------------------|
--------------------|-------------------|-----------0--0--0-----|
--L-----------------|-------------------|--------------------0--|
--------------------|-------------------|-----------------------|
--------------------|-------------------|-----------------------|
--------------------|-------------------|-----------------------|


  Q    E  E  E  E  Q       H        E  E  Q       Q.     E  E  E  E  E   
------------------------|----------------------|------------------------|
--1----0----------------|----------------------|--0---------------------|
----------2--L--0--L----|-----------2--2--2----|---------2--0-----0--2--|
------------------------|----------------------|---------------4--------|
------------------------|----------------------|------------------------|
------------------------|----------------------|------------------------|


  H        H           H        E  Q    E     H        H         
--------------------|----------------------|--------------------|
--------------------|----------------------|--------------------|
--L-----------------|--------------0----0--|--L-----------------|
--------------------|-----------2----------|--------------------|
--------------------|----------------------|--------------------|
--------------------|----------------------|--------------------|


  W                   Q    E  E  Q    E  E     E  Q    E  H         
-------------------|------------------------|----------------------|
-------------------|-------0--0--0----------|----------------------|
-------------------|------------------2--0--|--2--0----0--L--------|
-------------------|------------------------|----------------------|
-------------------|------------------------|----------------------|
-------------------|------------------------|----------------------|


  H        E  E  E  E     Q    E  Q    E  Q       Q    H        E  E   
-----------------------|-----------------------|----------------------|
--------------0--0--0--|--0----1----------0----|--L-------------------|
-----------0-----------|----------2----0-------|-------------------0--|
-----------------------|-----------------------|----------------------|
-----------------------|-----------------------|----------------------|
-----------------------|-----------------------|----------------------|


  Q    Q    E  E  Q       E   E  E  E  E  E  E  E     E  E  E  E  E  E  E  E   
-----------------------|---------------------------|--------------------------|
--1----3----0----------|---------------------------|--------------------------|
---------------2--0----|--2b--L--L--L--L--L--L--L--|--L--L--L--L--L--2--2--0--|
-----------------------|---------------------------|--------------------------|
-----------------------|---------------------------|--------------------------|
-----------------------|---------------------------|--------------------------|


  E  Q    E  E  E  E  E     Q    E  Q    E  Q       H        E  E  Q     
-------------------------|-----------------------|----------------------|
-------------0--0--0-----|--1----0---------------|----------------------|
--L-------------------0--|----------2----0--L----|-----------2--2--2----|
----------0--------------|-----------------------|----------------------|
-------------------------|-----------------------|----------------------|
-------------------------|-----------------------|----------------------|


  Q.     E  Q    E  E     H        H           Q.     E  E  E  E  E     
-----------------------|--------------------|--------------------------|
-----------------------|--------------------|--------------------------|
--4------2--0-------2--|--L-----------------|---------------0--L-------|
-----------------4-----|--------------------|---------0--2--------5pb--|
-----------------------|--------------------|--------------------------|
-----------------------|--------------------|--------------------------|


  H.           E  E     W                   Q.     E  E  E  E  E   
---------------------|-------------------|------------------------|
---------------------|-------------------|---------0--L--0--0-----|
---------------------|-------------------|---------------------0--|
--L------------L-----|-------------------|------------------------|
---------------------|-------------------|------------------------|
---------------------|-------------------|------------------------|


  Q    E  Q    E  Q       H        E  E  Q       Q.     E  Q    Q     
-----------------------|----------------------|----------------------|
--1----0---------------|----------------------|--0-------------------|
----------2----0--L----|-----------2--2--2----|---------2--0---------|
-----------------------|----------------------|-----------------4----|
-----------------------|----------------------|----------------------|
-----------------------|----------------------|----------------------|


  H        H           H        E  E  E  E     W                 
--------------------|-----------------------|-------------------|
--------------------|-----------0-----------|-------------------|
--2-----------------|--------------2--0--0--|-------------------|
--------------------|-----------------------|-------------------|
--------------------|-----------------------|-------------------|
--------------------|-----------------------|-------------------|


  W                   W                   W                   W                 
-------------------|-------------------|-------------------|-------------------|
-------------------|-------------------|-------------------|-------------------|
-------------------|-------------------|-------------------|-------------------|
-------------------|-------------------|-------------------|-------------------|
-------------------|-------------------|-------------------|-------------------|
-------------------|-------------------|-------------------|-------------------|


  W                   W                   W                   W                 
-------------------|-------------------|-------------------|-------------------|
-------------------|-------------------|-------------------|-------------------|
-------------------|-------------------|-------------------|-------------------|
-------------------|-------------------|-------------------|-------------------|
-------------------|-------------------|-------------------|-------------------|
-------------------|-------------------|-------------------|-------------------|


  W                   H        E  E  E  E     Q    E  Q    E  Q     
-------------------|-----------------------|-----------------------|
-------------------|--------------1--1-----|--3----1--0------------|
-------------------|-----------2--------2--|---------------2--L----|
-------------------|-----------------------|-----------------------|
-------------------|-----------------------|-----------------------|
-------------------|-----------------------|-----------------------|


  H        E  E  E  E     Q    Q    E  Q    E     W                 
-----------------------|--0--------------------|-------------------|
-----------0--3--3--0--|-------3----1--0----1--|--L----------------|
-----------------------|-----------------------|-------------------|
-----------------------|-----------------------|-------------------|
-----------------------|-----------------------|-------------------|
-----------------------|-----------------------|-------------------|


  H        E  S S E  E     W                   W                 
------------------------|-------------------|-------------------|
--0--------L--L---------|-------------------|-------------------|
----------------0-2--0--|--0----------------|-------------------|
------------------------|-------------------|--2----------------|
------------------------|-------------------|-------------------|
------------------------|-------------------|-------------------|


  Q    E  E  E  E  E  E     E  E  E  E  E  E  Q       H        E  Q    E   
-------------------------|-------------------------|----------------------|
-------0--0--0--0-----1--|--L--0--L----------------|-------------------0--|
-------------------0-----|-----------2--L--0--L----|-----------2--2-------|
-------------------------|-------------------------|----------------------|
-------------------------|-------------------------|----------------------|
-------------------------|-------------------------|----------------------|


  Q    Q    Q    E  E     Q    H.              H        E  E  E  E   
-----------------------|--------------------|-----------------------|
--L----1---------------|--------------------|-----------0-----------|
------------2-------2--|--L-----------------|--------------2--0--0--|
-----------------2-----|--------------------|-----------------------|
-----------------------|--------------------|-----------------------|
-----------------------|--------------------|-----------------------|


  W                   W                   W                   W                 
-------------------|-------------------|-------------------|-------------------|
-------------------|-------------------|-------------------|-------------------|
--L----------------|-------------------|-------------------|-------------------|
-------------------|-------------------|-------------------|-------------------|
-------------------|-------------------|-------------------|-------------------|
-------------------|-------------------|-------------------|-------------------|


  W                   W                   W                   W                 
-------------------|-------------------|-------------------|-------------------|
-------------------|-------------------|-------------------|-------------------|
-------------------|-------------------|-------------------|-------------------|
-------------------|-------------------|-------------------|-------------------|
-------------------|-------------------|-------------------|-------------------|
-------------------|-------------------|-------------------|-------------------|


  W                   W                                      
-------------------|-------------------|-------------------||
-------------------|-------------------|-------------------||
-------------------|-------------------|-------------------||
-------------------|-------------------|-------------------||
-------------------|-------------------|-------------------||
-------------------|-------------------|-------------------||

timz_unix30@yahoo.com
^^, pakirate naman po..tnx..gudluck..enjoy...^^,
comments
print report bad tab
8 comments total. Showing first comments.
0 reply
zacky.v wrote on May 18 2007, 10:50 am

dude i have the tab book and they hit mutes through the whole pretty much.

0 reply
zacky.v wrote on May 18 2007, 10:52 am

i just checked your profile and why the **** are all your tabs guitar pro tabs *******.

0 reply
PurelyCanadian wrote on August 19 2007, 08:04 am

Could of just put the chords over the words... would of taken a lot less space and made it a lot easier to read. No reason to tab the chords out with rhythm and everything, it isn't that hard to figure out. I guess now I have to write the chords out.

I want to post or [tab]
guest
You may want to rate the tab now too:
select rating
Please do not post tabs as comments. Select "correction" instead!