Oops, an error
Loading. Please wait.

Duelling Banjos Tab

18,616 views 13 this week
4 commentsread comments
1 2 3 4 5
worth learning
x 5
Autoscroll
+/-
esc
set tempo
stop
WARNING: You are trying to view
                                    content from Ultimate-Guitar.com
                                    in an unauthorized application,
                                    which is prohibited.

                                    Please use an official Ultimate
                                    Guitar Tabs application for iPhone,
                                    iPad or Android to access legitimate
                                    chords, guitar, bass, and drum tabs
                                    from Ultimate-Guitar.com database.

                                    Type "ultimate guitar tabs" in Apple
                                    App Store's or Android Market's
                                    search to find the application.
Duelling banjos
http://www.guitaren.dk
Tab: Fr??rikur Ellefsen
Guitar

E||------------------------|----------------------|----------------------|
B||------------------------|----------------------|----3-----------------|
G||----3-------------------|--3-------------------|--3-------------------|
D||----------------------3-|--------------------3-|----------------------|
A||--3-----------------3---|------------------3---|--------------------3-|
E||--8---------------------|----------------------|----------------------|

------------------------|--------6---------------|-------------------|
------------------------|------3-----------------|-------------------|
----3-------------------|----3-------------------|-------------------|
--3-7-----------------0-|--3---------------------|-------------------|
------------------------|------------------------|-------------------|
--------------------6---|------------------------|-------------------|

--------------------|-----------------------|--------------------|
--------------------|--3--3--3----4----3----|--------------------|
--------------------|-----3--3----3----3----|--------------------|
------------------3-|-----3--3----5----3----|------------------3-|
------------------8-|-----------------------|------------------8-|
--------------------|-----------------------|--------------------|

-----------------------|-------------------|-----------------------|
--3--3--3----4----3----|-------------------|-----3--3----4----3----|
-----3--3----3----3----|-------------------|--3--3--3----3----3----|
-----3--3----5----3----|-----------------3-|--7--3--3----5----3----|
-----------------------|-------------------|-----------------------|
-----------------------|-------------------|-----------------------|

-------------------|-----------------------|------------------|
-------------------|--3--3--3----4----3----|------------------|
-------------------|-----3--3----3----3----|------------------|
-----------------3-|-----3--3----5----3----|------------------|
-----------------8-|-----------------------|------------------|
-------------------|-----------------------|------------------|

--------------------|--1-------------------|---------------------|
--------------3--4--|-------3----4---------|--3---------1--------|
--------------------|-----------------5----|-------3-------------|
--------------------|----------------------|---------------------|
--------------------|----------------------|---------------------|
--------------------|----------------------|---------------------|

------------------|--------------------|--1-------------------|
------------------|--------------3--4--|-------3----4---------|
------------------|--------------------|-----------------5----|
------------------|--------------------|----------------------|
------------------|--------------------|----------------------|
------------------|--------------------|----------------------|

---------------------|------------------|-------------------|
--3---------1--------|------------------|-------------------|
-------3-------------|------------------|-------------------|
---------------------|------------------|--------------3----|
---------------------|------------------|-------------------|
---------------------|------------------|-------------------|

----------------------|---------------------|------------------|
------------1----3----|-------3----1--------|------------------|
--3----3--------------|--3------------------|------------------|
----------------------|---------------------|------------------|
----------------------|---------------------|------------------|
----------------------|---------------------|------------------|

--------------------|----------------------|---------------------|
--------------------|----------------------|---------------------|
--------------------|----------------------|---------------------|
--------------------|------------0----1----|--3----1----0--------|
--------------1--1--|--1----3--------------|---------------------|
--------------------|----------------------|---------------------|

------------------|--------------------|----------------------|
------------------|--------------------|----------------------|
------------------|--------------------|----------------------|
------------------|--------------------|------------0----1----|
------------------|--------------1--1--|--1----3--------------|
------------------|--------------------|----------------------|

---------------------|------------------|--------------------|
---------------------|------------------|--------------------|
---------------------|------------------|--------------------|
--3----1----0--------|------------------|--------------1--1--|
---------------------|------------------|--------------------|
---------------------|------------------|--------------------|

----------------------|---------------------|------------------|
----------------------|---------------------|------------------|
------------0----1----|--3----1----0--------|------------------|
--1----3--------------|---------------------|------------------|
----------------------|---------------------|------------------|
----------------------|---------------------|------------------|

--------------------|----------------------|---------------------|
--------------------|----------------------|---------------------|
--------------------|----------------------|---------------------|
--------------------|------------0----1----|--3----1----0--------|
--------------1--1--|--1----3--------------|---------------------|
--------------------|----------------------|---------------------|

------------------|--------------------|----------------------|
------------------|--------------------|----------------------|
------------------|--------------------|-------0----2----3----|
------------------|--------------3--3--|--3-------------------|
------------------|--------------------|----------------------|
------------------|--------------------|----------------------|

---------------------|------------------|--------------------|
--1------------------|------------------|--------------------|
-------3----2--------|------------------|--------------------|
---------------------|------------------|------------------3-|
---------------------|------------------|------------------8-|
---------------------|------------------|--------------------|

-----------------------|--------------------|-----------------------|
--3--3--3----4----3----|--------------------|--3--3--3----4----3----|
-----3--3----3----3----|--------------------|-----3--3----3----3----|
-----3--3----5----3----|------------------3-|-----3--3----5----3----|
-----------------------|------------------8-|-----------------------|
-----------------------|--------------------|-----------------------|

------------------|--------------------|--1-------------------|
------------------|--------------3--4--|-------3----4---------|
------------------|--------------------|-----------------5----|
------------------|--------------------|----------------------|
------------------|--------------------|----------------------|
------------------|--------------------|----------------------|

---------------------|------------------|--------------------|
--3---------1--------|------------------|--------------3--4--|
-------3-------------|------------------|--------------------|
---------------------|------------------|--------------------|
---------------------|------------------|--------------------|
---------------------|------------------|--------------------|

--1-------------------|---------------------|------------------|
-------3----4---------|--3---------1--------|------------------|
-----------------5----|-------3-------------|------------------|
----------------------|---------------------|------------------|
----------------------|---------------------|------------------|
----------------------|---------------------|------------------|

-------------------|----------------------|-----------------------|
-------------------|------------1----3----|-------3------1--------|
-------------------|--3----3--------------|--3--------------------|
----------------3--|----------------------|-----------------------|
-------------------|----------------------|------------3-3--------|
-------------------|----------------------|------------1----------|

--------------------|---------------------|--------------------|
--------------------|-----------1----3----|--------------------|
-----------0--------|------3--------------|--------------------|
--------------------|---------------------|--1-----------------|
---------3-3--------|---------------------|-----------1--------|
---------1----------|---------------------|--------------------|

---------------------|--------------------|--------------------|
---------------------|--------------------|--------------------|
---------------------|--3-----------------|--0-----------------|
--1--------1----3----|-----------3--------|-----------3--------|
---------------------|--------------------|--------------------|
---------------------|--------------------|--------------------|

--------------------|--------------------|----------------------|
--------------------|--------------------|----------------------|
--------------------|--------------------|----------------0-----|
--3-----------------|--3-----------------|-----------3-------3--|
-----------3--------|-----------3--------|--1-------------------|
--------------------|--------------------|----------------------|

---------------------|--------------------|---------------------|
---------------------|--------------------|---------------------|
--3------------------|--------------------|---------------------|
-----------3----0----|--1-----------------|--1------------------|
---------------------|-----------1--------|---------------------|
---------------------|--------------------|-----------3----4----|

--------------------|---------------------|--------------------|
--------------------|---------------------|--------------------|
-----------0--------|---------------------|--------------------|
--------------------|--3--------0----1----|--3-----------------|
--1-----------------|---------------------|-----------3--------|
--------------------|---------------------|--------------------|

---------------------|----------------------|---------------------|
---------------------|----------------------|---------------------|
---------------------|----------------0-----|--3-------------3----|
--3------------------|-----------3-------3--|-----------3---------|
-----------4----3----|--1-------------------|---------------------|
---------------------|----------------------|---------------------|

----------------------|--1------------------|--------------------|
-------1----3----4----|-------4----3--------|--------------------|
--3-------------------|---------------------|--------------------|
----------------------|---------------------|--------------------|
----------------------|---------------------|--1-----------------|
----------------------|---------------------|-----------1--------|

---------------------|----------------------|--1------------------|
---------------------|-------1----3----4----|-------4----3--------|
----------------3----|--3-------------------|---------------------|
---------------------|----------------------|---------------------|
--1------------------|----------------------|---------------------|
-----------1---------|----------------------|---------------------|

--------------------|--------------------|-------1----3----4----|
--------------------|--------------------|--4-------------------|
--------------------|--------------------|----------------------|
--------------------|--------------------|----------------------|
--1-----------------|--1-----------------|----------------------|
-----------1--------|-----------1--------|----------------------|

--6----4----3--------|--------------------|--------------------|
---------------------|--------------------|--------------------|
---------------------|--------------------|--------------------|
---------------------|--1-----------------|--1-----------------|
---------------------|-----------1--------|-----------1--------|
---------------------|--------------------|--------------------|

----------------------|--1------------------|--------------------|
-------1----3----4----|-------4----3--------|--------------------|
--3-------------------|---------------------|--------------------|
----------------------|---------------------|--------------------|
----------------------|---------------------|--1-----------------|
----------------------|---------------------|-----------1--------|

--------------------|--1----3----5----6----|--8----6----5--------|
--------------------|----------------------|---------------------|
--------------------|----------------------|---------------------|
--------------------|----------------------|---------------------|
--1-----------------|----------------------|---------------------|
-----------1--------|----------------------|---------------------|

--------------------|-------------------------|---------------------|
--------------------|-------------------3--3--|--3----4----3--------|
--------------------|-----------------3----3--|--3----3----3--------|
--3-----------------|--3------------3------3--|--3----5----3--------|
-----------3--------|-----------3-------------|---------------------|
--------------------|-------------------------|---------------------|

-----------------------|---------------------|--------------------|
-----------------3--3--|--3----4----3--------|----------3----4----|
---------------3----3--|--3----3----3--------|--------------------|
-------------3------3--|--3----5----3--------|--------------------|
-----------------------|---------------------|--------------------|
-----------------------|---------------------|--------------------|

--1-------------------|---------------------|--------------------|
-------3----4---------|--3---------1--------|--------------------|
-----------------5----|-------3-------------|--------------------|
----------------------|---------------------|-----------3--------|
----------------------|---------------------|--1-----------------|
----------------------|---------------------|--------------------|

---------------------|--1-------------------|---------------------|
---------------------|-------3----4---------|--3---------1--------|
----------------3----|-----------------5----|-------3-------------|
-----------3---------|----------------------|---------------------|
--1------------------|----------------------|---------------------|
---------------------|----------------------|---------------------|

--------------------|---------------------|----------------------|
--------------------|---------------------|------------1----3----|
--------------------|---------------------|--3----3--------------|
-----------3--------|-----------3----3----|----------------------|
--1-----------------|--1------------------|----------------------|
--------------------|---------------------|----------------------|

----------------------|----------------------|-----------------------|
-------3----1---------|----------------------|------------1----3--1--|
--3-------------------|----3-----------------|----3------------------|
----------------------|--3-------------------|--3--------------0-----|
--------------------1-|--------------------1-|------------3-------3--|
----------------------|----------------------|-----------------------|

--------------------|---------------------|--------------------|
--4-----------------|---------------------|--------------------|
--------------------|---------------------|-----------0--------|
--------------------|---------------------|--------------------|
--6-----------------|--6------------------|--1-----------------|
-----------6--------|-----------3----4----|--------------------|

---------------------|--------------------|---------------------|
---------------------|--------------------|---------------------|
---------------------|--------------------|---------------------|
--3--------0----1----|--3-----------------|--3------------------|
---------------------|-----------3--------|-----------4----3----|
---------------------|--------------------|---------------------|

----------------------|---------------------|---------------------|
----------------------|---------------------|---------------------|
----------------0-----|--3------------------|---------------------|
-----------3-------3--|----------------0----|--1--------3----4----|
--1-------------------|-----------3---------|---------------------|
----------------------|---------------------|---------------------|

--------------------|--------------------|---------------------|
--------------------|--------------------|---------------------|
--0-----------------|--------------------|--0------------------|
-----------1--------|-----------3--------|-----------0----1----|
--------------------|--1-----------------|---------------------|
--------------------|--------------------|---------------------|

--------------------|---------------------|----------------------|
--------------------|---------------------|----------------------|
--------------------|---------------------|----------------0-----|
--3-----------------|--3------------------|-----------3-------3--|
-----------3--------|-----------4----3----|--1-------------------|
--------------------|---------------------|----------------------|

--------------------|----------------------|--1-----------------|
---------------3----|-------1----3----4----|--------------------|
--3-----------------|--3-------------------|--3-----------------|
--------------------|------------0---------|--3-----------------|
--------------------|--1----3---------6----|--1-----------------|
--------------------|----------------------|--------------------|

----------------------|--1-----------------|----------------------|
-------1----3----4----|--------------------|-------1----3----4----|
--3-------------------|--3-----------------|--3-------------------|
------------0---------|--3-----------------|------------0---------|
--1----3---------6----|--1-----------------|--1----3---------6----|
----------------------|--------------------|----------------------|

--1-----------------|----------------------|--1--------1--------|
--------------------|-------1----3----4----|--------------------|
--3-----------------|--3-------------------|--3--------3--------|
--3-----------------|------------0---------|--3--------3--------|
--1-----------------|--1----3---------6----|--1--------1--------|
--------------------|----------------------|--------------------|

--8--------8--------|--6--------------6-------|------------------|
--4--------4--------|-------------------------|------------------|
--5--------5--------|--7------------7---------|------------------|
--7--------7--------|--8----------8-----------|------------------|
--6--------6--------|--8--------8-------------|------------------|
--------------------|-------------------------|------------------|

------------------|------------------|------------------||
------------------|------------------|------------------||
------------------|------------------|------------------||
------------------|------------------|------------------||
------------------|------------------|------------------||
------------------|------------------|------------------||

---
Banjo

D||------------------|----------------------|----3----------------|
B||------------------|----5----0------------|--0------------------|
G||------------------|--3------3------------|--3------------------|
D||------------------|--6------8------------|---------------------|
G||------------------|----------------------|---------------------|

----3-------------------|-------------------|------------3---------|
---------3--------------|-------------------|-------3--------------|
--3---------------------|-------------------|--3-------------------|
--7---------------------|--------------3----|----------------------|
-----------3------------|-------------------|-----------------3----|

------------------|--------------------|--0--3--3---------3----|
------------------|--------------------|--3--3--3----4----3----|
------------------|------------------3-|-----3--3----3----3----|
------------------|--------------------|-----------------------|
------------------|--------------------|-------------0---------|

--------------------|--3--3--3----5----3----|------------------|
------------------0-|-----3--3----4----3----|------------------|
------------------3-|-----3--3----3----3----|------------------|
--------------------|-----------------------|------------------|
--------------------|--3--3--3----3----3----|------------------|

-----3----3----5----3----|------------------|--0--3--3---------3----|
--------0------4----3----|------------------|-----3--3----4----3----|
--------3------3----3----|------------------|-------------3----3----|
-------------------------|------------------|-----------------------|
--3------------3---------|------------------|--------3----0---------|

------------------|------------------|--------------0--1--|
------------------|------------------|--------------------|
------------------|------------------|--------------------|
------------------|------------------|--------------------|
------------------|------------------|--------------------|

--3----0----1---------|--0------------------|------------------|
-----------------1----|------------1--------|------------------|
----------------------|-------3-------------|------------------|
----------------------|---------------------|------------------|
----------------------|---------------------|------------------|

--------------0--1--|--3----0----1---------|--0------------------|
--------------------|-----------------1----|------------1--------|
--------------------|----------------------|-------3-------------|
--------------------|----------------------|---------------------|
--------------------|----------------------|---------------------|

------------------|------------------|-----------------0----|
------------------|------------------|------------1---------|
------------------|------------------|--3----3--------------|
------------------|------------------|----------------------|
------------------|------------------|----------------------|

-------------------|------------------|--------------------|
-------------------|------------------|--------------------|
--3----------------|------------------|--------------3--3--|
-------------------|------------------|--------------------|
-------------------|------------------|--------------------|

------------0----1----|--3----1----0--------|------------------|
-------1--------------|---------------------|------------------|
--3-------------------|---------------------|------------------|
----------------------|---------------------|------------------|
----------------------|---------------------|------------------|

--------------------|------------0----1----|--3----1----0--------|
--------------------|-------1--------------|---------------------|
--------------3--3--|--3-------------------|---------------------|
--------------------|----------------------|---------------------|
--------------------|----------------------|---------------------|

------------------|--------------1--1--|--1----3--------------|
------------------|--------------------|----------------------|
------------------|--------------------|----------------------|
------------------|--------------------|----------------------|
------------------|--------------------|------------0----1----|

---------------------|------------------|--------------------|
---------------------|------------------|--------------------|
---------------------|------------------|--------------3--3--|
---------------------|------------------|--------------------|
--3----1----0--------|------------------|--------------------|

------------0----1----|--3----1----0--------|------------------|
-------1--------------|---------------------|------------------|
--3-------------------|---------------------|------------------|
----------------------|---------------------|------------------|
----------------------|---------------------|------------------|

--------------3--3--|--3-------------------|---------------------|
--------------------|----------------------|---------------------|
--------------------|----------------------|---------------------|
--------------------|----------------------|---------------------|
--------------------|-------0----2----3----|--5----3----2--------|

--------------------|--0--3--3---------3----|--------------------|
--------------------|--3--3--3----4----3----|------------------0-|
------------------3-|-----3--3----3----3----|------------------3-|
--------------------|-----------------------|--------------------|
--------------------|-------------0---------|--------------------|

--3--3--3---------3----|------------------|------------------|
-----3--3----4----3----|------------------|------------------|
-----3--3----3----3----|------------------|------------------|
-----------------------|------------------|------------------|
-------------0---------|------------------|------------------|

--------------0--1--|--3----0----1---------|--0------------------|
--------------------|-----------------1----|------------1--------|
--------------------|----------------------|-------3-------------|
--------------------|----------------------|---------------------|
--------------------|----------------------|---------------------|

--------------------|----------------------|--3-------------------|
--------------------|----------------3--4--|-------3----4---------|
--3-----------------|--3-------------------|-----------------5----|
-----------3--------|-----------3----------|----------------------|
--------------------|----------------------|----------------------|

--0------------------|------------------0----|-------0---------------|
------------1--------|----------3--1---------|------------1----------|
-------3-------------|--3----3---------------|--3-----------------3--|
---------------------|-----------------------|-----------------------|
---------------------|-----------------------|-----------------3-----|

-----------------0----|----------0----------0--|----------1--------------|
------------1---------|------------------------|-------------------------|
--3----3--------------|--3----------1----------|--0----------------3-----|
----------------------|------------------------|-------------------------|
----------------------|-------3----------3-----|-------3-----0--3-----0--|

--------3-----3--------3--|-------------3--------3--|--------3-----3-------3--|
-----1--------------------|-------------------------|-------------------------|
-----------------3--------|--3-------3--------3-----|-----3-------------------|
--------------------------|-------------------------|-------------------------|
--3--------3--------0-----|-------3--------3--------|--3--------3-------0-----|

--3-------3-----3--3-----|-----3-----3-----3--3-----|-----3-----------0-----0--|
-------4-----------------|--4-----4-----------------|-----------3--1-----------|
-------------------------|--------------------------|--3-----------------------|
-------------------------|--------------------------|--------------------------|
-------------3--------3--|--------------3--------3--|--------3-----------3-----|

-----0-----0-----0-----0--|--1--------1-----1--------|
--1-----------1-----------|--------------------------|
--------------------------|--------------------------|
--------------------------|--------------------------|
--------3-----------3-----|-----0--3-----3-----0--3--|

--3--------3-----------3--|-------------3--------3--|-----------3-----------3--|
-----4--------------------|----------3--------3-----|--------3-----------------|
--------5--------3--------|--3----------------------|-----3-----------3--------|
--------------------------|-------------------------|--------------------------|
--------------3-----0-----|-------3--------3--------|--3-----------3-----0-----|

--3-------3-----3--3-----|-----3-----3---------3-----|
-------4-----------------|--4-----4--------1-2-------|
-------------------------|---------------------------|
-------------------------|---------------------------|
-------------3--------3--|--------------3---------3--|

------------------------3--|-----------3-----------3--|
----------1--1-2----1-2----|--------3--------3--------|
--3------------------------|-----3--------------3-----|
---------------------------|--------------------------|
-------3---------3---------|--3-----------3-----------|

-----------3-----------3--|-----------3--------------|
-----3-----------3--------|-----3-----------3--------|
--------3-----------3-----|--------3-----------3--3--|
--------------------------|--------------------------|
--3-----------3-----------|--3-----------3-----------|

-----3-----3--0--3--1--3--|--3--3---------------3--|---------------------3--|
--------1-----------------|--------4----3----------|----------3-------------|
--3-----------------------|------------------------|-------------3----------|
--------------------------|------------------------|------------------------|
--------------------------|------------------3-----|--3----3----------3-----|

------------------------|-----3-----3--0--3--1--3--|--3--3-----3----------3--|
----------3-------------|--------1-----------------|--------4-----3----------|
--3----------3----3--3--|--3-----------------------|-------------------------|
------------------------|--------------------------|-------------------------|
-------3----------------|--------------------------|-------------------3-----|

---------------------1--|--------1-----------1-----|--1-----3-----------------|
--4-------4-------------|--------------------------|--------------------------|
------------------------|--3-----------------------|--------------------------|
------------------------|--------------------------|--------------------------|
-------3-----0----3-----|-----0-----0--3--0-----0--|-----3-----3--0--3--1--3--|

--------------------------|--------3--------3--------|
-----------------------4--|-----3-----3-----------3--|
--------------------3-----|--3-----------3-----3-----|
--------------------------|--------------------------|
--3--3--2--3--0--3--------|--------------------------|

-----3--------3--------3--|-----3-----3--0--3--1--3--|--3--3-----3-------3-----|
-----------3--------3-----|--------1-----------------|--------4-----3-------4--|
--3-----3--------3--------|--3-----------------------|-------------------------|
--------------------------|--------------------------|-------------------------|
--------------------------|--------------------------|-------------------------|

----------3-----------3--|-----------3--------3--3--|--3-----------------------|
-------3--------4--------|-----4-----------4--------|--------------------------|
-------------------------|--------------------------|--------------------------|
--3----------3-----3-----|--3-----3-----3-----------|--------------------------|
-------------------------|--------------------------|-----2--0--2--2--5--3--5--|

-----------------------|--------------3--3--|--3---------3--------|
-----------------------|--------------3--3--|--3----4----3--------|
-----------------------|--------------3--3--|--3----3----3--------|
-----------------------|--------------------|---------------------|
--5--5--3--5--2--------|--------------------|-------0-------------|

--------------3--3--|--3---------3--------|----------3----------3--|
--------------3--3--|--3----4----3--------|--3----------4----------|
--------------3--3--|--3----3----3--------|------------------------|
--------------------|---------------------|------------------------|
--------------------|-------0-------------|-------3----------3-----|

-----3-----3-----3--------|--3-------------------|--0--------------------|
--3-----------4-----3--4--|-------3----4---------|------------1----------|
--------------------------|-----------------5----|-------3------------3--|
--------------------------|----------------------|-----------------------|
--------3-----------------|----------------------|-----------------3-----|

--3-------3----------3--|----------3-------------|--3-------------------|
------------------------|------------------3--4--|-------3----4---------|
------------------------|--3---------------------|-----------------5----|
-------------3----------|-------------3----------|----------------------|
-------3----------3-----|-------3----------------|----------------------|

--0-----------------3--|--3-------------3--------|-------------3----------|
------------1----------|----------3--------3--3--|-------3--3-------------|
-------3---------------|-------------3-----------|--3------------------3--|
-----------------------|-------------------------|------------------------|
-----------------3-----|-------3-----------------|------------------3-----|

----------------0-----0--|----------0-----3--------|-----1-----1--3-----0--3--|
----------3--1-----------|----------------------3--|--------2--------2--------|
--3----------------------|--3----------1-----------|--0-----------------------|
-------------------------|-------------------------|--------------------------|
-------3-----------3-----|-------3-----------3-----|--------------------------|

--------3-----1--3--------|--------------------------|
-----4-----2-----------2--|--------------------------|
--------------------------|--3--3--3--3--3--3--3--3--|
--------------------------|--------------------------|
--3-----------------3-----|--------------------------|

--------3--------3--------|--3-----3--3-----3--3-----|
--------------------------|-----4--------------------|
--3--3-----3--3-----3--3--|--------------------------|
--------------------------|--------------------------|
--------------------------|--------------3--------3--|

-----3-----3-----3--3-----|-----0--------0--------0--|
--4-----4-----------------|--1--------1--------1-----|
--------------------------|--------------------------|
--------------------------|--------------------------|
--------------3--------3--|--------3--------3--------|

--------0--------0-----3--|--------------------------|
-----1--------1-----2-----|-----4-----4-----4-----4--|
--------------------------|--3-----0-----3-----3-----|
--------------------------|--------------------------|
--3--------3--------------|--------------------------|

--3-----3--------3--------|-----0-----0-----0-----0--|
-----------4-----------4--|--------------1-----------|
--------------5-----3-----|--5-----------------------|
--------------------------|--------------------------|
-----3--------------------|--------3-----------3-----|

-----0-----0-----0-----0--|--3----1--3-----3--3-----|-----3-----3--------3-----|
--1-----------1-----------|-------------------------|--4-----4--------2--------|
--------------------------|-------------------------|--------------------------|
--------------------------|-------------------------|--------------------------|
--------3-----------3-----|-------------3--------3--|--------------3--------3--|

------------------------3--|-----------3-----------3--|--------------------3--|
----------1--1-2----1-2----|--------3--------3--------|-----------------------|
--3------------------------|-----3--------------3-----|-----------------------|
---------------------------|--------------------------|-----------------------|
-------3---------3---------|--3-----------3-----------|--3--3------3----0-----|

-----0-----0----------0--|-----0-----0-----0-----0--|-----0-----0-----0-----0--|
--------1----------------|--1-----------1-----------|--1-----------1-----------|
--------------3----------|--------------------------|--------------------------|
-------------------------|--------------------------|--------------------------|
--3----------------3-----|--------3-----------3-----|--------3-----------3-----|

-----0-----0-----3-----0--|-----3------------------|-------------------------|
--1-----------------------|-----------3------------|-------------------------|
--------------------0-----|--------------3---------|-------------------------|
--------------------------|------------------------|-------------------------|
--------3-----3-----------|--3-----3----------3----|--3-5----3--3--0----3----|

---------8--8-------8-----|-----5-----------6--------|-----------------3-------|
---------------8----------|--5-----------4-----------|---------------3---------|
-----------------------7--|--------------------------|-------------3-----------|
--------------------------|--------------------------|-----------3-------------|
--5-7---------------------|--------3--5--------3--5--|--3--------3-------------|

------------------|------------------|------------------|------------------||
------------------|------------------|------------------|------------------||
------------------|------------------|------------------|------------------||
------------------|------------------|------------------|------------------||
------------------|------------------|------------------|------------------||

--
http://www.guitaren.dk
Tab: Fr??rikur Ellefsen
comments
print report bad tab
4 comments total. Showing first comments.
+2 reply
Jumping Jack wrote on November 5 2008, 03:10 pm

That's impossible to play, even for people with big hands.
8 fret on E, and 3 fret on A? Impossible

+1 reply
Panama1958 wrote on November 18 2008, 05:06 am

The key is wrong

+1 reply
greenman999 wrote on March 14 2009, 01:45 pm

I have HUGE hands and can barely reach that! a flowing chord change would never happen!

I want to post or [tab]
guest
You may want to rate the tab now too:
select rating
Please do not post tabs as comments. Select "correction" instead!