Oops, an error
Loading. Please wait.

Grade Eight Tab

ver3
ver3

Whole song

More versions @911Tabs.com
2,360 views 1 this week
no commentswrite comment
1 2 3 4 5
not so good
x 5
add to favorites launch autoscroll
font size
0
reset
Autoscroll
+/-
esc
set tempo
stop
Contributor
Difficulty
WARNING: You are trying to view
                                    content from Ultimate-Guitar.com
                                    in an unauthorized application,
                                    which is prohibited.

                                    Please use an official Ultimate
                                    Guitar Tabs application for iPhone,
                                    iPad or Android to access legitimate
                                    chords, guitar, bass, and drum tabs
                                    from Ultimate-Guitar.com database.

                                    Type "ultimate guitar tabs" in Apple
                                    App Store's or Android Market's
                                    search to find the application.
Gtr I (E A D G B E) - 'Rhodes'
Gtr II (E A D G B Ab) - 'Strings'
Gtr III (E A D G B E) - 'Mtd Guita'

  Q=113
 4/4
  Gtr I
  W          W          W           Q.          E    +H
|----------|----------|----------|--1-------------------------------|
|----------|----------|----------|--2-----------4----(4)------------|
|----------|----------|----------|--3-----------5----(5)------------|
|----------|----------|----------|--4-----------6----(6)------------|
|----------|----------|----------|----------------------------------|
|----------|----------|----------|----------------------------------|
|
| Gtr II
| W          W          W           Q.          E    +Q.        E
|----------|----------|----------|-17----------19---(19)------------|
|----------|----------|----------|-----------------------------21---|
|----------|----------|----------|----------------------------------|
|----------|----------|----------|----------------------------------|
|----------|----------|----------|----------------------------------|
|----------|----------|----------|----------------------------------|
|
| Gtr III    YOU HAVE BEEN RICK ROLL'D
| W          W          W           S  S E S E    S   S  E S E  S S
|----------|----------|----------|----------------------------------|
|----------|----------|----------|----------------------------------|
|----------|----------|----------|-----1---1----------1----1------1-|
|----------|----------|----------|----------------3-------------3---|
|----------|----------|----------|----------------------------------|
|----------|----------|----------|----------------------------------|


   Q.          E    +H
|-----------------------------------------|
|--4-----------6----(6)-------------------|
|--5-----------6----(6)-------------------|
|--6-----------8----(8)-------------------|
|-----------------------------------------|
|-----------------------------------------|
|
|  Q.          E    +Q         S  S  S  S
|-19----------21---(21)-------24-22-21-17-|
|-----------------------------------------|
|-----------------------------------------|
|-----------------------------------------|
|-----------------------------------------|
|-----------------------------------------|
|
|  S  S E S E    S   S  S S S  S  S  E
|-----------------------------------------|
|-----------------------------------------|
|-----1---1----------1----1----1--3-------|
|----------------3------------------------|
|-----------------------------------------|
|-----------------------------------------|


    Q.          E    +H
|-------------------------------------|
|---6-----------4----(4)--------------|
|---6-----------5----(5)--------------|
|---8-----------6----(6)--------------|
|---9---------------------------------|
|-------------------------------------|
|
|  +Q.          E    +Q         Q
|-(17)---------19---(19)--------------|
|------------------------------21-----|
|-------------------------------------|
|-------------------------------------|
|-------------------------------------|
|-------------------------------------|
|
|   S  S E S E    S   S  S S S  E S S
|-------------------------------------|
|-------------------------------------|
|------1---1----------1----1----------|
|-----------------3---------------1-3-|
|-------------------------------------|
|-------------------------------------|


    Q.         E   +H                   Q.          E    +H
|------------------------------------|----------------------------------|
|---4----------6---(6)---------------|--6-----------4----(4)------------|
|---5----------6---(6)---------------|--6-----------5----(5)------------|
|---6----------8---(8)---------------|--8-----------6----(6)------------|
|------------------------------------|--9-------------------------------|
|------------------------------------|----------------------------------|
|
|  +W                                   Q.          E    +Q.        E
|------------------------------------|-17----------19---(19)------------|
|-(21)-------------------------------|-----------------------------21---|
|------------------------------------|----------------------------------|
|------------------------------------|----------------------------------|
|------------------------------------|----------------------------------|
|------------------------------------|----------------------------------|
|
|   S  S E S E   S  S  S S S S S S S    S  S E S E    S   S  E S E  S S
|------------------------------------|----------------------------------|
|------------------------------------|----------------------------------|
|------1---1--------1----1-----1---1-|-----1---1----------1----1------1-|
|----------------3-------------------|----------------3-------------3---|
|------------------------------------|----------------------------------|
|------------------------------------|----------------------------------|


   Q.          E    +H
|-----------------------------------------|
|--4-----------6----(6)-------------------|
|--5-----------6----(6)-------------------|
|--6-----------8----(8)-------------------|
|-----------------------------------------|
|-----------------------------------------|
|
|  Q.          E    +Q         S  S  S  S
|-19----------21---(21)-------24-22-21-17-|
|-----------------------------------------|
|-----------------------------------------|
|-----------------------------------------|
|-----------------------------------------|
|-----------------------------------------|
|
|  S  S E S E    S   S  S S S  S  S  E
|-----------------------------------------|
|-----------------------------------------|
|-----1---1----------1----1----1--3-------|
|----------------3------------------------|
|-----------------------------------------|
|-----------------------------------------|


    Q      +S  S  E    +H
|---------------------------------------|
|-----------------4----(4)--------------|
|---6------(6)----5----(5)--------------|
|---8------(8)----6----(6)--------------|
|---9------(9)--------------------------|
|---------------------------------------|
|
|  +Q.            E    +Q         Q
|-(17)-----------19---(19)--------------|
|--------------------------------21-----|
|---------------------------------------|
|---------------------------------------|
|---------------------------------------|
|---------------------------------------|
|
|   S  S E  S  E    S   S  S S S  E S S
|---------------------------------------|
|---------------------------------------|
|------1----1-----------1----1----------|
|-------------------3---------------1-3-|
|---------------------------------------|
|---------------------------------------|


    Q      Q     +H                  W
|----------------------------------|--------------------------|
|---4------6-----(6)---------------|-6------------------------|
|---5------6-----(6)---------------|-6------------------------|
|---6------6-----(6)---------------|-8------------------------|
|----------------------------------|-9------------------------|
|----------------------------------|--------------------------|
|
|  +W                                W
|----------------------------------|--------------------------|
|-(21)-----------------------------|--------------------------|
|----------------------------------|--------------------------|
|----------------------------------|--------------------------|
|----------------------------------|--------------------------|
|----------------------------------|--------------------------|
|
|   S  S E S E S  S  S S S S S S S   S S E S E S S E S E S S
|----------------------------------|--------------------------|
|----------------------------------|--------------------------|
|------1---1------1----1-----1---1-|---1---1-----1---1-----1--|
|--------------3-------------------|-----------3---------3----|
|----------------------------------|--------------------------|
|----------------------------------|--------------------------|


   W                           W
|----------------------------|----------------------------|
|----------------------------|-6--------------------------|
|----------------------------|-6--------------------------|
|--8-------------------------|-8--------------------------|
|-11-------------------------|-9--------------------------|
|----------------------------|----------------------------|
|
| Gtr III
|  S S E S E S S S S S S S E   S S E S E S S S S S E S S
|----------------------------|----------------------------|
|----------------------------|----------------------------|
|----1---1-----1---1---1-3---|---1---1-----1---1----------|
|------------3---------------|-----------3-----------1-3--|
|----------------------------|----------------------------|
|----------------------------|----------------------------|


  Q.          E    +H                  W
|------------------------------------|-------------------------|
|-6----------------------------------|-6-----------------------|
|-6----------------------------------|-6-----------------------|
|-8-----------8----(8)---------------|-8-----------------------|
|-9----------11---(11)---------------|-9-----------------------|
|------------------------------------|-------------------------|
|
| S  S E S E    S   S  S S S S S S S   S S E S E S S E S E S S
|------------------------------------|-------------------------|
|------------------------------------|-------------------------|
|----1---1----------1----1-----1---1-|---1---1-----1---1-----1-|
|---------------3--------------------|-----------3---------3---|
|------------------------------------|-------------------------|
|------------------------------------|-------------------------|


   W                           W
|----------------------------|----------------------------|
|----------------------------|-6--------------------------|
|----------------------------|-6--------------------------|
|--8-------------------------|-8--------------------------|
|-11-------------------------|-9--------------------------|
|----------------------------|----------------------------|
|
|  S S E S E S S S S S S S E   S S E S E S S S S S E S S
|----------------------------|----------------------------|
|----------------------------|----------------------------|
|----1---1-----1---1---1-3---|---1---1-----1---1----------|
|------------3---------------|-----------3-----------1-3--|
|----------------------------|----------------------------|
|----------------------------|----------------------------|


  Q.          E    +H                   H            +Q.             E
|------------------------------------|-----------------------------------|
|-6----------------------------------|-------------------------------4---|
|-6----------------------------------|--6------------(6)-------------5---|
|-8-----------8----(8)---------------|--8------------(8)-------------6---|
|-9----------11---(11)---------------|--9------------(9)-------------8---|
|------------------------------------|-----------------------------------|
|
| Gtr II
| W                                     H            +Q       +S  S  E
|------------------------------------|-----------------------------------|
|------------------------------------|--7------------(7)------(7)---16---|
|------------------------------------|--8------------(8)------(8)---17---|
|------------------------------------|-11-----------(11)-----(11)---15---|
|------------------------------------|------------------------------18---|
|------------------------------------|-----------------------------------|
|
| Gtr III
| S  S E S E    S   S  S S S S S S S    S S E S E S   S  E S   E     S S
|------------------------------------|-----------------------------------|
|------------------------------------|-----------------------------------|
|----1---1----------1----1-----1---1-|----1---1-------1----1-----------1-|
|---------------3--------------------|------------3------------------3---|
|------------------------------------|-----------------------------------|
|------------------------------------|-----------------------------------|


   +W                                     W
|-------------------------------------|----------------------------------|
|--(4)--------------------------------|---2------------------------------|
|--(5)--------------------------------|---3------------------------------|
|--(6)--------------------------------|---4------------------------------|
|--(8)--------------------------------|----------------------------------|
|-------------------------------------|----------------------------------|
|
|  +H             +Q         +S  S  E    +H             +Q.         E
|-------------------------------------|----------------------------------|
|-(16)-----------(16)-------(16)---18-|-(18)-----------(18)--------------|
|-(17)-----------(17)-------(17)---18-|-(18)-----------(18)--------------|
|-(15)-----------(15)-------(15)---20-|-(20)-----------(20)--------------|
|-(18)-----------(18)-------(18)---21-|-(21)-----------(21)--------------|
|-------------------------------------|----------------------------------|
|
|   S  S E S E S   S  S S S   S  S  E     S  S E S E S   S  S S S E S S
|-------------------------------------|----------------------------------|
|-------------------------------------|----------------------------------|
|------1---1-------1----1-----1--3----|------1---1-------1----1----------|
|--------------3----------------------|--------------3--------------1-3--|
|-------------------------------------|----------------------------------|
|-------------------------------------|----------------------------------|


   Q.             E    +H
|--1-----------------------------------------|
|--2--------------4----(4)-------------------|
|--3--------------5----(5)-------------------|
|--4--------------6----(6)-------------------|
|-----------------8----(8)-------------------|
|--------------------------------------------|
|
|  S  E    S E    E    +Q         S  S  S  S
|--------------------------------------------|
|-14------14-----16---(16)-------------------|
|-15------15-----17---(17)-------------18----|
|-16------16-----18---(18)-------18-20----20-|
|-18------18-----20---(20)-------------------|
|--------------------------------------------|
|
|  S  S E    S E    S   S  S S S  S  S  S  S
|--------------------------------------------|
|--------------------------------------------|
|-----1------1----------1----1-------1-----1-|
|-------------------3------------------------|
|--------------------------------------------|
|--------------------------------------------|


   Q.          E    +H
|----------------------------------|
|--6-----------4----(4)------------|
|--6-----------5----(5)------------|
|--8-----------6----(6)------------|
|--9-------------------------------|
|----------------------------------|
|
|  Q.          E    +Q.        E
|-17----------19---(19)------------|
|-----------------------------21---|
|----------------------------------|
|----------------------------------|
|----------------------------------|
|----------------------------------|
|
|  S  S E S E    S   S  E S E  S S
|----------------------------------|
|----------------------------------|
|-----1---1----------1----1------1-|
|----------------3-------------3---|
|----------------------------------|
|----------------------------------|


   Q.          E    +H
|-----------------------------------------|
|--4-----------6----(6)-------------------|
|--5-----------6----(6)-------------------|
|--6-----------8----(8)-------------------|
|-----------------------------------------|
|-----------------------------------------|
|
|  Q.          E    +Q         S  S  S  S
|-19----------21---(21)-------24-22-21-17-|
|-----------------------------------------|
|-----------------------------------------|
|-----------------------------------------|
|-----------------------------------------|
|-----------------------------------------|
|
|  S  S E S E    S   S  S S S  S  S  E
|-----------------------------------------|
|-----------------------------------------|
|-----1---1----------1----1----1--3-------|
|----------------3------------------------|
|-----------------------------------------|
|-----------------------------------------|


    Q.          E    +H
|-------------------------------------|
|---6-----------4----(4)--------------|
|---6-----------5----(5)--------------|
|---8-----------6----(6)--------------|
|---9---------------------------------|
|-------------------------------------|
|
|  +Q.          E    +Q         Q
|-(17)---------19---(19)--------------|
|------------------------------21-----|
|-------------------------------------|
|-------------------------------------|
|-------------------------------------|
|-------------------------------------|
|
|   S  S E S E    S   S  S S S  E S S
|-------------------------------------|
|-------------------------------------|
|------1---1----------1----1----------|
|-----------------3---------------1-3-|
|-------------------------------------|
|-------------------------------------|


    Q.         E   +H                   Q.          E    +H
|------------------------------------|----------------------------------|
|---4----------6---(6)---------------|--6-----------4----(4)------------|
|---5----------6---(6)---------------|--6-----------5----(5)------------|
|---6----------8---(8)---------------|--8-----------6----(6)------------|
|------------------------------------|--9-------------------------------|
|------------------------------------|----------------------------------|
|
|  +W                                   Q.          E    +Q.        E
|------------------------------------|-17----------19---(19)------------|
|-(21)-------------------------------|-----------------------------21---|
|------------------------------------|----------------------------------|
|------------------------------------|----------------------------------|
|------------------------------------|----------------------------------|
|------------------------------------|----------------------------------|
|
|   S  S E S E   S  S  S S S S S S S    S  S E S E    S   S  E S E  S S
|------------------------------------|----------------------------------|
|------------------------------------|----------------------------------|
|------1---1--------1----1-----1---1-|-----1---1----------1----1------1-|
|----------------3-------------------|----------------3-------------3---|
|------------------------------------|----------------------------------|
|------------------------------------|----------------------------------|


   Q.          E    +H
|-----------------------------------------|
|--4-----------6----(6)-------------------|
|--5-----------6----(6)-------------------|
|--6-----------8----(8)-------------------|
|-----------------------------------------|
|-----------------------------------------|
|
|  Q.          E    +Q         S  S  S  S
|-19----------21---(21)-------24-22-21-17-|
|-----------------------------------------|
|-----------------------------------------|
|-----------------------------------------|
|-----------------------------------------|
|-----------------------------------------|
|
|  S  S E S E    S   S  S S S  S  S  E
|-----------------------------------------|
|-----------------------------------------|
|-----1---1----------1----1----1--3-------|
|----------------3------------------------|
|-----------------------------------------|
|-----------------------------------------|


    Q      +S  S  E    +H
|---------------------------------------|
|-----------------4----(4)--------------|
|---6------(6)----5----(5)--------------|
|---8------(8)----6----(6)--------------|
|---9------(9)--------------------------|
|---------------------------------------|
|
|  +Q.            E    +Q         Q
|-(17)-----------19---(19)--------------|
|--------------------------------21-----|
|---------------------------------------|
|---------------------------------------|
|---------------------------------------|
|---------------------------------------|
|
|   S  S E  S  E    S   S  S S S  E S S
|---------------------------------------|
|---------------------------------------|
|------1----1-----------1----1----------|
|-------------------3---------------1-3-|
|---------------------------------------|
|---------------------------------------|


    Q      Q     +H                  W
|----------------------------------|--------------------------|
|---4------6-----(6)---------------|-6------------------------|
|---5------6-----(6)---------------|-6------------------------|
|---6------6-----(6)---------------|-8------------------------|
|----------------------------------|-9------------------------|
|----------------------------------|--------------------------|
|
|  +W                                W
|----------------------------------|--------------------------|
|-(21)-----------------------------|--------------------------|
|----------------------------------|--------------------------|
|----------------------------------|--------------------------|
|----------------------------------|--------------------------|
|----------------------------------|--------------------------|
|
|   S  S E S E S  S  S S S S S S S   S S E S E S S E S E S S
|----------------------------------|--------------------------|
|----------------------------------|--------------------------|
|------1---1------1----1-----1---1-|---1---1-----1---1-----1--|
|--------------3-------------------|-----------3---------3----|
|----------------------------------|--------------------------|
|----------------------------------|--------------------------|


   W                           W
|----------------------------|----------------------------|
|----------------------------|-6--------------------------|
|----------------------------|-6--------------------------|
|--8-------------------------|-8--------------------------|
|-11-------------------------|-9--------------------------|
|----------------------------|----------------------------|
|
| Gtr III
|  S S E S E S S S S S S S E   S S E S E S S S S S E S S
|----------------------------|----------------------------|
|----------------------------|----------------------------|
|----1---1-----1---1---1-3---|---1---1-----1---1----------|
|------------3---------------|-----------3-----------1-3--|
|----------------------------|----------------------------|
|----------------------------|----------------------------|


  Q.          E    +H                  W
|------------------------------------|-------------------------|
|-6----------------------------------|-6-----------------------|
|-6----------------------------------|-6-----------------------|
|-8-----------8----(8)---------------|-8-----------------------|
|-9----------11---(11)---------------|-9-----------------------|
|------------------------------------|-------------------------|
|
| S  S E S E    S   S  S S S S S S S   S S E S E S S E S E S S
|------------------------------------|-------------------------|
|------------------------------------|-------------------------|
|----1---1----------1----1-----1---1-|---1---1-----1---1-----1-|
|---------------3--------------------|-----------3---------3---|
|------------------------------------|-------------------------|
|------------------------------------|-------------------------|


   W                           W
|----------------------------|----------------------------|
|----------------------------|-6--------------------------|
|----------------------------|-6--------------------------|
|--8-------------------------|-8--------------------------|
|-11-------------------------|-9--------------------------|
|----------------------------|----------------------------|
|
|  S S E S E S S S S S S S E   S S E S E S S S S S E S S
|----------------------------|----------------------------|
|----------------------------|----------------------------|
|----1---1-----1---1---1-3---|---1---1-----1---1----------|
|------------3---------------|-----------3-----------1-3--|
|----------------------------|----------------------------|
|----------------------------|----------------------------|


  Q.          E    +H                   H            +Q.             E
|------------------------------------|-----------------------------------|
|-6----------------------------------|-------------------------------4---|
|-6----------------------------------|--6------------(6)-------------5---|
|-8-----------8----(8)---------------|--8------------(8)-------------6---|
|-9----------11---(11)---------------|--9------------(9)-------------8---|
|------------------------------------|-----------------------------------|
|
| Gtr II
| W                                     H            +Q       +S  S  E
|------------------------------------|-----------------------------------|
|------------------------------------|--7------------(7)------(7)---16---|
|------------------------------------|--8------------(8)------(8)---17---|
|------------------------------------|-11-----------(11)-----(11)---15---|
|------------------------------------|------------------------------18---|
|------------------------------------|-----------------------------------|
|
| Gtr III
| S  S E S E    S   S  S S S S S S S    S S E S E S   S  E S   E     S S
|------------------------------------|-----------------------------------|
|------------------------------------|-----------------------------------|
|----1---1----------1----1-----1---1-|----1---1-------1----1-----------1-|
|---------------3--------------------|------------3------------------3---|
|------------------------------------|-----------------------------------|
|------------------------------------|-----------------------------------|


   +W                                     W
|-------------------------------------|----------------------------------|
|--(4)--------------------------------|---2------------------------------|
|--(5)--------------------------------|---3------------------------------|
|--(6)--------------------------------|---4------------------------------|
|--(8)--------------------------------|----------------------------------|
|-------------------------------------|----------------------------------|
|
|  +H             +Q         +S  S  E    +H             +Q.         E
|-------------------------------------|----------------------------------|
|-(16)-----------(16)-------(16)---18-|-(18)-----------(18)--------------|
|-(17)-----------(17)-------(17)---18-|-(18)-----------(18)--------------|
|-(15)-----------(15)-------(15)---20-|-(20)-----------(20)--------------|
|-(18)-----------(18)-------(18)---21-|-(21)-----------(21)--------------|
|-------------------------------------|----------------------------------|
|
|   S  S E S E S   S  S S S   S  S  E     S  S E S E S   S  S S S E S S
|-------------------------------------|----------------------------------|
|-------------------------------------|----------------------------------|
|------1---1-------1----1-----1--3----|------1---1-------1----1----------|
|--------------3----------------------|--------------3--------------1-3--|
|-------------------------------------|----------------------------------|
|-------------------------------------|----------------------------------|


   Q.             E    +H
|--1-----------------------------------------|
|--2--------------4----(4)-------------------|
|--3--------------5----(5)-------------------|
|--4--------------6----(6)-------------------|
|-----------------8----(8)-------------------|
|--------------------------------------------|
|
|  S  E    S E    E    +Q         S  S  S  S
|--------------------------------------------|
|-14------14-----16---(16)-------------------|
|-15------15-----17---(17)-------------18----|
|-16------16-----18---(18)-------18-20----20-|
|-18------18-----20---(20)-------------------|
|--------------------------------------------|
|
|  S  S E    S E    S   S  S S S  S  S  S  S
|--------------------------------------------|
|--------------------------------------------|
|-----1------1----------1----1-------1-----1-|
|-------------------3------------------------|
|--------------------------------------------|
|--------------------------------------------|


   Q.          E    +H
|----------------------------------|
|--6-----------4----(4)------------|
|--6-----------5----(5)------------|
|--8-----------6----(6)------------|
|--9-------------------------------|
|----------------------------------|
|
|  Q.          E    +Q.        E
|-17----------19---(19)------------|
|-----------------------------21---|
|----------------------------------|
|----------------------------------|
|----------------------------------|
|----------------------------------|
|
|  S  S E S E    S   S  E S E  S S
|----------------------------------|
|----------------------------------|
|-----1---1----------1----1------1-|
|----------------3-------------3---|
|----------------------------------|
|----------------------------------|


   Q.          E    +H
|-----------------------------------------|
|--4-----------6----(6)-------------------|
|--5-----------6----(6)-------------------|
|--6-----------8----(8)-------------------|
|-----------------------------------------|
|-----------------------------------------|
|
|  Q.          E    +Q         S  S  S  S
|-19----------21---(21)-------24-22-21-17-|
|-----------------------------------------|
|-----------------------------------------|
|-----------------------------------------|
|-----------------------------------------|
|-----------------------------------------|
|
|  S  S E S E    S   S  S S S  S  S  E
|-----------------------------------------|
|-----------------------------------------|
|-----1---1----------1----1----1--3-------|
|----------------3------------------------|
|-----------------------------------------|
|-----------------------------------------|


    Q.          E    +H
|-------------------------------------|
|---6-----------4----(4)--------------|
|---6-----------5----(5)--------------|
|---8-----------6----(6)--------------|
|---9---------------------------------|
|-------------------------------------|
|
|  +Q.          E    +Q         Q
|-(17)---------19---(19)--------------|
|------------------------------21-----|
|-------------------------------------|
|-------------------------------------|
|-------------------------------------|
|-------------------------------------|
|
|   S  S E S E    S   S  S S S  E S S
|-------------------------------------|
|-------------------------------------|
|------1---1----------1----1----------|
|-----------------3---------------1-3-|
|-------------------------------------|
|-------------------------------------|


    Q.         E   +H                   Q.          E    +H
|------------------------------------|----------------------------------|
|---4----------6---(6)---------------|--6-----------4----(4)------------|
|---5----------6---(6)---------------|--6-----------5----(5)------------|
|---6----------8---(8)---------------|--8-----------6----(6)------------|
|------------------------------------|--9-------------------------------|
|------------------------------------|----------------------------------|
|
|  +W                                   Q.          E    +Q.        E
|------------------------------------|-17----------19---(19)------------|
|-(21)-------------------------------|-----------------------------21---|
|------------------------------------|----------------------------------|
|------------------------------------|----------------------------------|
|------------------------------------|----------------------------------|
|------------------------------------|----------------------------------|
|
|   S  S E S E   S  S  S S S S S S S    S  S E S E    S   S  E S E  S S
|------------------------------------|----------------------------------|
|------------------------------------|----------------------------------|
|------1---1--------1----1-----1---1-|-----1---1----------1----1------1-|
|----------------3-------------------|----------------3-------------3---|
|------------------------------------|----------------------------------|
|------------------------------------|----------------------------------|


   Q.          E    +H
|-----------------------------------------|
|--4-----------6----(6)-------------------|
|--5-----------6----(6)-------------------|
|--6-----------8----(8)-------------------|
|-----------------------------------------|
|-----------------------------------------|
|
|  Q.          E    +Q         S  S  S  S
|-19----------21---(21)-------24-22-21-17-|
|-----------------------------------------|
|-----------------------------------------|
|-----------------------------------------|
|-----------------------------------------|
|-----------------------------------------|
|
|  S  S E S E    S   S  S S S  S  S  E
|-----------------------------------------|
|-----------------------------------------|
|-----1---1----------1----1----1--3-------|
|----------------3------------------------|
|-----------------------------------------|
|-----------------------------------------|


    Q      +S  S  E    +H
|---------------------------------------|
|-----------------4----(4)--------------|
|---6------(6)----5----(5)--------------|
|---8------(8)----6----(6)--------------|
|---9------(9)--------------------------|
|---------------------------------------|
|
|  +Q.            E    +Q         Q
|-(17)-----------19---(19)--------------|
|--------------------------------21-----|
|---------------------------------------|
|---------------------------------------|
|---------------------------------------|
|---------------------------------------|
|
|   S  S E  S  E    S   S  S S S  E S S
|---------------------------------------|
|---------------------------------------|
|------1----1-----------1----1----------|
|-------------------3---------------1-3-|
|---------------------------------------|
|---------------------------------------|


    Q      Q     +H                   Q.          E    +H
|----------------------------------|----------------------------------|
|---4------6-----(6)---------------|--6-----------4----(4)------------|
|---5------6-----(6)---------------|--6-----------5----(5)------------|
|---6------6-----(6)---------------|--8-----------6----(6)------------|
|----------------------------------|--9-------------------------------|
|----------------------------------|----------------------------------|
|
|  +W                                 Q.          E    +Q.        E
|----------------------------------|-17----------19---(19)------------|
|-(21)-----------------------------|-----------------------------21---|
|----------------------------------|----------------------------------|
|----------------------------------|----------------------------------|
|----------------------------------|----------------------------------|
|----------------------------------|----------------------------------|
|
|   S  S E S E S  S  S S S S S S S    S  S E S E    S   S  E S E  S S
|----------------------------------|----------------------------------|
|----------------------------------|----------------------------------|
|------1---1------1----1-----1---1-|-----1---1----------1----1------1-|
|--------------3-------------------|----------------3-------------3---|
|----------------------------------|----------------------------------|
|----------------------------------|----------------------------------|


   Q.          E    +H
|-----------------------------------------|
|--4-----------6----(6)-------------------|
|--5-----------6----(6)-------------------|
|--6-----------8----(8)-------------------|
|-----------------------------------------|
|-----------------------------------------|
|
|  Q.          E    +Q         S  S  S  S
|-19----------21---(21)-------24-22-21-17-|
|-----------------------------------------|
|-----------------------------------------|
|-----------------------------------------|
|-----------------------------------------|
|-----------------------------------------|
|
|  S  S E S E    S   S  S S S  S  S  E
|-----------------------------------------|
|-----------------------------------------|
|-----1---1----------1----1----1--3-------|
|----------------3------------------------|
|-----------------------------------------|
|-----------------------------------------|


    Q.          E    +H
|-------------------------------------|
|---6-----------4----(4)--------------|
|---6-----------5----(5)--------------|
|---8-----------6----(6)--------------|
|---9---------------------------------|
|-------------------------------------|
|
|  +Q.          E    +Q         Q
|-(17)---------19---(19)--------------|
|------------------------------21-----|
|-------------------------------------|
|-------------------------------------|
|-------------------------------------|
|-------------------------------------|
|
|   S  S E S E    S   S  S S S  E S S
|-------------------------------------|
|-------------------------------------|
|------1---1----------1----1----------|
|-----------------3---------------1-3-|
|-------------------------------------|
|-------------------------------------|


    Q.         E   +H                   Q.          E    +H
|------------------------------------|----------------------------------|
|---4----------6---(6)---------------|--6-----------4----(4)------------|
|---5----------6---(6)---------------|--6-----------5----(5)------------|
|---6----------8---(8)---------------|--8-----------6----(6)------------|
|------------------------------------|--9-------------------------------|
|------------------------------------|----------------------------------|
|
|  +W                                   Q.          E    +Q.        E
|------------------------------------|-17----------19---(19)------------|
|-(21)-------------------------------|-----------------------------21---|
|------------------------------------|----------------------------------|
|------------------------------------|----------------------------------|
|------------------------------------|----------------------------------|
|------------------------------------|----------------------------------|
|
|   S  S E S E   S  S  S S S S S S S    S  S E S E    S   S  E S E  S S
|------------------------------------|----------------------------------|
|------------------------------------|----------------------------------|
|------1---1--------1----1-----1---1-|-----1---1----------1----1------1-|
|----------------3-------------------|----------------3-------------3---|
|------------------------------------|----------------------------------|
|------------------------------------|----------------------------------|


   Q.          E    +H
|-----------------------------------------|
|--4-----------6----(6)-------------------|
|--5-----------6----(6)-------------------|
|--6-----------8----(8)-------------------|
|-----------------------------------------|
|-----------------------------------------|
|
|  Q.          E    +Q         S  S  S  S
|-19----------21---(21)-------24-22-21-17-|
|-----------------------------------------|
|-----------------------------------------|
|-----------------------------------------|
|-----------------------------------------|
|-----------------------------------------|
|
|  S  S E S E    S   S  S S S  S  S  E
|-----------------------------------------|
|-----------------------------------------|
|-----1---1----------1----1----1--3-------|
|----------------3------------------------|
|-----------------------------------------|
|-----------------------------------------|


    Q      +S  S  E    +H
|---------------------------------------|
|-----------------4----(4)--------------|
|---6------(6)----5----(5)--------------|
|---8------(8)----6----(6)--------------|
|---9------(9)--------------------------|
|---------------------------------------|
|
|  +Q.            E    +Q         Q
|-(17)-----------19---(19)--------------|
|--------------------------------21-----|
|---------------------------------------|
|---------------------------------------|
|---------------------------------------|
|---------------------------------------|
|
|   S  S E  S  E    S   S  S S S  E S S
|---------------------------------------|
|---------------------------------------|
|------1----1-----------1----1----------|
|-------------------3---------------1-3-|
|---------------------------------------|
|---------------------------------------|


    Q      Q     +H                  W
|----------------------------------|--------------------------|
|---4------6-----(6)---------------|--------------------------|
|---5------6-----(6)---------------|--------------------------|
|---6------6-----(6)---------------|--------------------------|
|----------------------------------|--------------------------|
|----------------------------------|--------------------------|
|
|  +W                                W
|----------------------------------|--------------------------|
|-(21)-----------------------------|--------------------------|
|----------------------------------|--------------------------|
|----------------------------------|--------------------------|
|----------------------------------|--------------------------|
|----------------------------------|--------------------------|
|
|   S  S E S E S  S  S S S S S S S   S S E S E S S E S E S S
|----------------------------------|--------------------------|
|----------------------------------|--------------------------|
|------1---1------1----1-----1---1-|---1---1-----1---1-----1--|
|--------------3-------------------|-----------3---------3----|
|----------------------------------|--------------------------|
|----------------------------------|--------------------------|


   E   S  S  +E    S S H               W
|--9------9--(9)---8-----------------|---------------------------|
|--9------9--(9)---9-----------------|---------------------------|
|-10-----10-(10)---8-----------------|---------------------------|
|------------------------------------|---------------------------|
|------------------------------------|---------------------------|
|------------------------------------|---------------------------|
|
| Gtr III
|  S S E      S  E   S S S S S S S E   S S E S E S S S S S E S S
|------------------------------------|---------------------------|
|------------------------------------|---------------------------|
|----1--------1--------1---1---1-3---|---1---1-----1---1---------|
|--------------------3---------------|-----------3-----------1-3-|
|------------------------------------|---------------------------|
|------------------------------------|---------------------------|


   E   S  S  +E    S S H                 W
|--9------9--(9)---8-------------------|-------------------------|
|--9------9--(9)---9-------------------|-------------------------|
|-10-----10-(10)---8-------------------|-------------------------|
|--------------------------------------|-------------------------|
|--------------------------------------|-------------------------|
|--------------------------------------|-------------------------|
|
|  S S E      S  E   S S S S S S S S S   S S E S E S S E S E S S
|--------------------------------------|-------------------------|
|--------------------------------------|-------------------------|
|----1--------1--------1---1-----1---1-|---1---1-----1---1-----1-|
|--------------------3-----------------|-----------3---------3---|
|--------------------------------------|-------------------------|
|--------------------------------------|-------------------------|


   E   S  S  +E    S S H               W
|--9------9--(9)---8-----------------|---------------------------|
|--9------9--(9)---9-----------------|---------------------------|
|-10-----10-(10)---8-----------------|---------------------------|
|------------------------------------|---------------------------|
|------------------------------------|---------------------------|
|------------------------------------|---------------------------|
|
|  S S E      S  E   S S S S S S S E   S S E S E S S S S S E S S
|------------------------------------|---------------------------|
|------------------------------------|---------------------------|
|----1--------1--------1---1---1-3---|---1---1-----1---1---------|
|--------------------3---------------|-----------3-----------1-3-|
|------------------------------------|---------------------------|
|------------------------------------|---------------------------|


   E   S  S  +E    S S H                 W
|--9------9--(9)---8-------------------|-------------------------|
|--9------9--(9)---9-------------------|-------------------------|
|-10-----10-(10)---8-------------------|-------------------------|
|--------------------------------------|-------------------------|
|--------------------------------------|-------------------------|
|--------------------------------------|-------------------------|
|
|  S S E      S  E   S S S S S S S S S   S S E S E S S E S E S S
|--------------------------------------|-------------------------|
|--------------------------------------|-------------------------|
|----1--------1--------1---1-----1---1-|---1---1-----1---1-----1-|
|--------------------3-----------------|-----------3---------3---|
|--------------------------------------|-------------------------|
|--------------------------------------|-------------------------|


   E   S  S  +E    S S H               W
|--9------9--(9)---8-----------------|---------------------------|
|--9------9--(9)---9-----------------|---------------------------|
|-10-----10-(10)---8-----------------|---------------------------|
|------------------------------------|---------------------------|
|------------------------------------|---------------------------|
|------------------------------------|---------------------------|
|
|  S S E      S  E   S S S S S S S E   S S E S E S S S S S E S S
|------------------------------------|---------------------------|
|------------------------------------|---------------------------|
|----1--------1--------1---1---1-3---|---1---1-----1---1---------|
|--------------------3---------------|-----------3-----------1-3-|
|------------------------------------|---------------------------|
|------------------------------------|---------------------------|


   E   S  S  +E    S S H                 W
|--9------9--(9)---8-------------------|-------------------------|
|--9------9--(9)---9-------------------|-------------------------|
|-10-----10-(10)---8-------------------|-------------------------|
|--------------------------------------|-------------------------|
|--------------------------------------|-------------------------|
|--------------------------------------|-------------------------|
|
|  S S E      S  E   S S S S S S S S S   S S E S E S S E S E S S
|--------------------------------------|-------------------------|
|--------------------------------------|-------------------------|
|----1--------1--------1---1-----1---1-|---1---1-----1---1-----1-|
|--------------------3-----------------|-----------3---------3---|
|--------------------------------------|-------------------------|
|--------------------------------------|-------------------------|


   E   S  S  +E    S S H               W
|--9------9--(9)---8-----------------|---------------------------|
|--9------9--(9)---9-----------------|---------------------------|
|-10-----10-(10)---8-----------------|---------------------------|
|------------------------------------|---------------------------|
|------------------------------------|---------------------------|
|------------------------------------|---------------------------|
|
|  S S E      S  E   S S S S S S S E   S S E S E S S S S S E S S
|------------------------------------|---------------------------|
|------------------------------------|---------------------------|
|----1--------1--------1---1---1-3---|---1---1-----1---1---------|
|--------------------3---------------|-----------3-----------1-3-|
|------------------------------------|---------------------------|
|------------------------------------|---------------------------|


   E   S  S  +E    S S H                 W          W
|--9------9--(9)---8-------------------|----------|------|
|--9------9--(9)---9-------------------|----------|------|
|-10-----10-(10)---8-------------------|----------|------|
|--------------------------------------|----------|------|
|--------------------------------------|----------|------|
|--------------------------------------|----------|------|
|
|  S S E      S  E   S S S S S S S S S   W          W
|--------------------------------------|----------|------|
|--------------------------------------|----------|------|
|----1--------1--------1---1-----1---1-|----------|------|
|--------------------3-----------------|----------|------|
|--------------------------------------|----------|------|
|--------------------------------------|----------|------|


  W          Q.        E +H             W          W
|----------|--------------------------|----------|------|
|----------|-6---------4-(4)----------|----------|------|
|----------|-6---------5-(5)----------|----------|------|
|----------|-8---------6-(6)----------|----------|------|
|----------|-9---------8-(8)----------|----------|------|
|----------|--------------------------|----------|------|
|
| Gtr II
| W          Q   +S  S E +Q   +S  S E   W          W
|----------|--------------------------|----------|------|
|----------|-6---(6)---4-(4)--(4)-----|----------|------|
|----------|-6---(6)---5-(5)--(5)-----|----------|------|
|----------|-8---(8)---6-(6)--(6)-----|----------|------|
|----------|-9---(9)---8-(8)--(8)-----|----------|------|
|----------|--------------------------|----------|------|


  W          Q.        E +H              H            +Q.             E
|----------|--------------------------|-----------------------------------|
|----------|-6---------4-(4)----------|--2------------(2)-------------4---|
|----------|-6---------5-(5)----------|--3------------(3)-------------5---|
|----------|-8---------6-(6)----------|--4------------(4)-------------6---|
|----------|-9---------8-(8)----------|-------------------------------8---|
|----------|--------------------------|-----------------------------------|
|
| W          Q   +S  S E +Q   +S  S E    H            +Q       +S  S  E
|----------|--------------------------|-----------------------------------|
|----------|-6---(6)---4-(4)--(4)-----|--7------------(7)------(7)---16---|
|----------|-6---(6)---5-(5)--(5)-----|--8------------(8)------(8)---17---|
|----------|-8---(8)---6-(6)--(6)-----|-11-----------(11)-----(11)---15---|
|----------|-9---(9)---8-(8)--(8)-----|------------------------------18---|
|----------|--------------------------|-----------------------------------|
|
| Gtr III
| W          W                           S S E S E S   S  E S   E     S S
|----------|--------------------------|-----------------------------------|
|----------|--------------------------|-----------------------------------|
|----------|--------------------------|----1---1-------1----1-----------1-|
|----------|--------------------------|------------3------------------3---|
|----------|--------------------------|-----------------------------------|
|----------|--------------------------|-----------------------------------|


   +W                                     W
|-------------------------------------|----------------------------------|
|--(4)--------------------------------|---2------------------------------|
|--(5)--------------------------------|---3------------------------------|
|--(6)--------------------------------|---4------------------------------|
|--(8)--------------------------------|----------------------------------|
|-------------------------------------|----------------------------------|
|
|  +H             +Q         +S  S  E    +H             +Q.         E
|-------------------------------------|----------------------------------|
|-(16)-----------(16)-------(16)---18-|-(18)-----------(18)--------------|
|-(17)-----------(17)-------(17)---18-|-(18)-----------(18)--------------|
|-(15)-----------(15)-------(15)---20-|-(20)-----------(20)--------------|
|-(18)-----------(18)-------(18)---21-|-(21)-----------(21)--------------|
|-------------------------------------|----------------------------------|
|
|   S  S E S E S   S  S S S   S  S  E     S  S E S E S   S  S S S E S S
|-------------------------------------|----------------------------------|
|-------------------------------------|----------------------------------|
|------1---1-------1----1-----1--3----|------1---1-------1----1----------|
|--------------3----------------------|--------------3--------------1-3--|
|-------------------------------------|----------------------------------|
|-------------------------------------|----------------------------------|


   Q.             E    +H
|--1-----------------------------------------|
|--2--------------4----(4)-------------------|
|--3--------------5----(5)-------------------|
|--4--------------6----(6)-------------------|
|-----------------8----(8)-------------------|
|--------------------------------------------|
|
|  S  E    S E    E    +Q         S  S  S  S
|--------------------------------------------|
|-14------14-----16---(16)-------------------|
|-15------15-----17---(17)-------------18----|
|-16------16-----18---(18)-------18-20----20-|
|-18------18-----20---(20)-------------------|
|--------------------------------------------|
|
|  S  S E    S E    S   S  S S S  S  S  S  S
|--------------------------------------------|
|--------------------------------------------|
|-----1------1----------1----1-------1-----1-|
|-------------------3------------------------|
|--------------------------------------------|
|--------------------------------------------|


   Q.          E    +H
|----------------------------------|
|--6-----------4----(4)------------|
|--6-----------5----(5)------------|
|--8-----------6----(6)------------|
|--9-------------------------------|
|----------------------------------|
|
|  Q.          E    +Q.        E
|-17----------19---(19)------------|
|-----------------------------21---|
|----------------------------------|
|----------------------------------|
|----------------------------------|
|----------------------------------|
|
|  S  S E S E    S   S  E S E  S S
|----------------------------------|
|----------------------------------|
|-----1---1----------1----1------1-|
|----------------3-------------3---|
|----------------------------------|
|----------------------------------|


   Q.          E    +H
|-----------------------------------------|
|--4-----------6----(6)-------------------|
|--5-----------6----(6)-------------------|
|--6-----------8----(8)-------------------|
|-----------------------------------------|
|-----------------------------------------|
|
|  Q.          E    +Q         S  S  S  S
|-19----------21---(21)-------24-22-21-17-|
|-----------------------------------------|
|-----------------------------------------|
|-----------------------------------------|
|-----------------------------------------|
|-----------------------------------------|
|
|  S  S E S E    S   S  S S S  S  S  E
|-----------------------------------------|
|-----------------------------------------|
|-----1---1----------1----1----1--3-------|
|----------------3------------------------|
|-----------------------------------------|
|-----------------------------------------|


    Q.          E    +H
|-------------------------------------|
|---6-----------4----(4)--------------|
|---6-----------5----(5)--------------|
|---8-----------6----(6)--------------|
|---9---------------------------------|
|-------------------------------------|
|
|  +Q.          E    +Q         Q
|-(17)---------19---(19)--------------|
|------------------------------21-----|
|-------------------------------------|
|-------------------------------------|
|-------------------------------------|
|-------------------------------------|
|
|   S  S E S E    S   S  S S S  E S S
|-------------------------------------|
|-------------------------------------|
|------1---1----------1----1----------|
|-----------------3---------------1-3-|
|-------------------------------------|
|-------------------------------------|


    Q.         E   +H                   Q.          E    +H
|------------------------------------|----------------------------------|
|---4----------6---(6)---------------|--6-----------4----(4)------------|
|---5----------6---(6)---------------|--6-----------5----(5)------------|
|---6----------8---(8)---------------|--8-----------6----(6)------------|
|------------------------------------|--9-------------------------------|
|------------------------------------|----------------------------------|
|
|  +W                                   Q.          E    +Q.        E
|------------------------------------|-17----------19---(19)------------|
|-(21)-------------------------------|-----------------------------21---|
|------------------------------------|----------------------------------|
|------------------------------------|----------------------------------|
|------------------------------------|----------------------------------|
|------------------------------------|----------------------------------|
|
|   S  S E S E   S  S  S S S S S S S    S  S E S E    S   S  E S E  S S
|------------------------------------|----------------------------------|
|------------------------------------|----------------------------------|
|------1---1--------1----1-----1---1-|-----1---1----------1----1------1-|
|----------------3-------------------|----------------3-------------3---|
|------------------------------------|----------------------------------|
|------------------------------------|----------------------------------|


   Q.          E    +H
|-----------------------------------------|
|--4-----------6----(6)-------------------|
|--5-----------6----(6)-------------------|
|--6-----------8----(8)-------------------|
|-----------------------------------------|
|-----------------------------------------|
|
|  Q.          E    +Q         S  S  S  S
|-19----------21---(21)-------24-22-21-17-|
|-----------------------------------------|
|-----------------------------------------|
|-----------------------------------------|
|-----------------------------------------|
|-----------------------------------------|
|
|  S  S E S E    S   S  S S S  S  S  E
|-----------------------------------------|
|-----------------------------------------|
|-----1---1----------1----1----1--3-------|
|----------------3------------------------|
|-----------------------------------------|
|-----------------------------------------|


    Q      +S  S  E    +H
|---------------------------------------|
|-----------------4----(4)--------------|
|---6------(6)----5----(5)--------------|
|---8------(8)----6----(6)--------------|
|---9------(9)--------------------------|
|---------------------------------------|
|
|  +Q.            E    +Q         Q
|-(17)-----------19---(19)--------------|
|--------------------------------21-----|
|---------------------------------------|
|---------------------------------------|
|---------------------------------------|
|---------------------------------------|
|
|   S  S E  S  E    S   S  S S S  E S S
|---------------------------------------|
|---------------------------------------|
|------1----1-----------1----1----------|
|-------------------3---------------1-3-|
|---------------------------------------|
|---------------------------------------|


    Q      Q     +H                   Q.          E    +H
|----------------------------------|----------------------------------|
|---4------6-----(6)---------------|--6-----------4----(4)------------|
|---5------6-----(6)---------------|--6-----------5----(5)------------|
|---6------6-----(6)---------------|--8-----------6----(6)------------|
|----------------------------------|--9-------------------------------|
|----------------------------------|----------------------------------|
|
|  +W                                 Q.          E    +Q.        E
|----------------------------------|-17----------19---(19)------------|
|-(21)-----------------------------|-----------------------------21---|
|----------------------------------|----------------------------------|
|----------------------------------|----------------------------------|
|----------------------------------|----------------------------------|
|----------------------------------|----------------------------------|
|
|   S  S E S E S  S  S S S S S S S    S  S E S E    S   S  E S E  S S
|----------------------------------|----------------------------------|
|----------------------------------|----------------------------------|
|------1---1------1----1-----1---1-|-----1---1----------1----1------1-|
|--------------3-------------------|----------------3-------------3---|
|----------------------------------|----------------------------------|
|----------------------------------|----------------------------------|


   Q.          E    +H
|-----------------------------------------|
|--4-----------6----(6)-------------------|
|--5-----------6----(6)-------------------|
|--6-----------8----(8)-------------------|
|-----------------------------------------|
|-----------------------------------------|
|
|  Q.          E    +Q         S  S  S  S
|-19----------21---(21)-------24-22-21-17-|
|-----------------------------------------|
|-----------------------------------------|
|-----------------------------------------|
|-----------------------------------------|
|-----------------------------------------|
|
|  S  S E S E    S   S  S S S  S  S  E
|-----------------------------------------|
|-----------------------------------------|
|-----1---1----------1----1----1--3-------|
|----------------3------------------------|
|-----------------------------------------|
|-----------------------------------------|


    Q.          E    +H
|-------------------------------------|
|---6-----------4----(4)--------------|
|---6-----------5----(5)--------------|
|---8-----------6----(6)--------------|
|---9---------------------------------|
|-------------------------------------|
|
|  +Q.          E    +Q         Q
|-(17)---------19---(19)--------------|
|------------------------------21-----|
|-------------------------------------|
|-------------------------------------|
|-------------------------------------|
|-------------------------------------|
|
|   S  S E S E    S   S  S S S  E S S
|-------------------------------------|
|-------------------------------------|
|------1---1----------1----1----------|
|-----------------3---------------1-3-|
|-------------------------------------|
|-------------------------------------|


    Q.         E   +H                   Q.          E    +H
|------------------------------------|----------------------------------|
|---4----------6---(6)---------------|--6-----------4----(4)------------|
|---5----------6---(6)---------------|--6-----------5----(5)------------|
|---6----------8---(8)---------------|--8-----------6----(6)------------|
|------------------------------------|--9-------------------------------|
|------------------------------------|----------------------------------|
|
|  +W                                   Q.          E    +Q.        E
|------------------------------------|-17----------19---(19)------------|
|-(21)-------------------------------|-----------------------------21---|
|------------------------------------|----------------------------------|
|------------------------------------|----------------------------------|
|------------------------------------|----------------------------------|
|------------------------------------|----------------------------------|
|
|   S  S E S E   S  S  S S S S S S S    S  S E S E    S   S  E S E  S S
|------------------------------------|----------------------------------|
|------------------------------------|----------------------------------|
|------1---1--------1----1-----1---1-|-----1---1----------1----1------1-|
|----------------3-------------------|----------------3-------------3---|
|------------------------------------|----------------------------------|
|------------------------------------|----------------------------------|


   Q.          E    +H
|-----------------------------------------|
|--4-----------6----(6)-------------------|
|--5-----------6----(6)-------------------|
|--6-----------8----(8)-------------------|
|-----------------------------------------|
|-----------------------------------------|
|
|  Q.          E    +Q         S  S  S  S
|-19----------21---(21)-------24-22-21-17-|
|-----------------------------------------|
|-----------------------------------------|
|-----------------------------------------|
|-----------------------------------------|
|-----------------------------------------|
|
|  S  S E S E    S   S  S S S  S  S  E
|-----------------------------------------|
|-----------------------------------------|
|-----1---1----------1----1----1--3-------|
|----------------3------------------------|
|-----------------------------------------|
|-----------------------------------------|


    Q      +S  S  E    +H
|---------------------------------------|
|-----------------4----(4)--------------|
|---6------(6)----5----(5)--------------|
|---8------(8)----6----(6)--------------|
|---9------(9)--------------------------|
|---------------------------------------|
|
|  +Q.            E    +Q         Q
|-(17)-----------19---(19)--------------|
|--------------------------------21-----|
|---------------------------------------|
|---------------------------------------|
|---------------------------------------|
|---------------------------------------|
|
|   S  S E  S  E    S   S  S S S  E S S
|---------------------------------------|
|---------------------------------------|
|------1----1-----------1----1----------|
|-------------------3---------------1-3-|
|---------------------------------------|
|---------------------------------------|


    Q      Q     +H                  W
|----------------------------------|--------------------------|
|---4------6-----(6)---------------|--------------------------|
|---5------6-----(6)---------------|--------------------------|
|---6------6-----(6)---------------|--------------------------|
|----------------------------------|--------------------------|
|----------------------------------|--------------------------|
|
|  +W                                W
|----------------------------------|--------------------------|
|-(21)-----------------------------|--------------------------|
|----------------------------------|--------------------------|
|----------------------------------|--------------------------|
|----------------------------------|--------------------------|
|----------------------------------|--------------------------|
|
|   S  S E S E S  S  S S S S S S S   S S E S E S S E S E S S
|----------------------------------|--------------------------|
|----------------------------------|--------------------------|
|------1---1------1----1-----1---1-|---1---1-----1---1-----1--|
|--------------3-------------------|-----------3---------3----|
|----------------------------------|--------------------------|
|----------------------------------|--------------------------|


   E   S  S  +E    S S H               W
|--9------9--(9)---8-----------------|---------------------------|
|--9------9--(9)---9-----------------|---------------------------|
|-10-----10-(10)---8-----------------|---------------------------|
|------------------------------------|---------------------------|
|------------------------------------|---------------------------|
|------------------------------------|---------------------------|
|
| Gtr III
|  S S E      S  E   S S S S S S S E   S S E S E S S S S S E S S
|------------------------------------|---------------------------|
|------------------------------------|---------------------------|
|----1--------1--------1---1---1-3---|---1---1-----1---1---------|
|--------------------3---------------|-----------3-----------1-3-|
|------------------------------------|---------------------------|
|------------------------------------|---------------------------|


   E   S  S  +E    S S H                 W
|--9------9--(9)---8-------------------|-------------------------|
|--9------9--(9)---9-------------------|-------------------------|
|-10-----10-(10)---8-------------------|-------------------------|
|--------------------------------------|-------------------------|
|--------------------------------------|-------------------------|
|--------------------------------------|-------------------------|
|
|  S S E      S  E   S S S S S S S S S   S S E S E S S E S E S S
|--------------------------------------|-------------------------|
|--------------------------------------|-------------------------|
|----1--------1--------1---1-----1---1-|---1---1-----1---1-----1-|
|--------------------3-----------------|-----------3---------3---|
|--------------------------------------|-------------------------|
|--------------------------------------|-------------------------|


   E   S  S  +E    S S H               W
|--9------9--(9)---8-----------------|---------------------------|
|--9------9--(9)---9-----------------|---------------------------|
|-10-----10-(10)---8-----------------|---------------------------|
|------------------------------------|---------------------------|
|------------------------------------|---------------------------|
|------------------------------------|---------------------------|
|
|  S S E      S  E   S S S S S S S E   S S E S E S S S S S E S S
|------------------------------------|---------------------------|
|------------------------------------|---------------------------|
|----1--------1--------1---1---1-3---|---1---1-----1---1---------|
|--------------------3---------------|-----------3-----------1-3-|
|------------------------------------|---------------------------|
|------------------------------------|---------------------------|


   E   S  S  +E    S S H                 W
|--9------9--(9)---8-------------------|-------------------------|
|--9------9--(9)---9-------------------|-------------------------|
|-10-----10-(10)---8-------------------|-------------------------|
|--------------------------------------|-------------------------|
|--------------------------------------|-------------------------|
|--------------------------------------|-------------------------|
|
|  S S E      S  E   S S S S S S S S S   S S E S E S S E S E S S
|--------------------------------------|-------------------------|
|--------------------------------------|-------------------------|
|----1--------1--------1---1-----1---1-|---1---1-----1---1-----1-|
|--------------------3-----------------|-----------3---------3---|
|--------------------------------------|-------------------------|
|--------------------------------------|-------------------------|


   E   S  S  +E    S S H               W
|--9------9--(9)---8-----------------|---------------------------|
|--9------9--(9)---9-----------------|---------------------------|
|-10-----10-(10)---8-----------------|---------------------------|
|------------------------------------|---------------------------|
|------------------------------------|---------------------------|
|------------------------------------|---------------------------|
|
|  S S E      S  E   S S S S S S S E   S S E S E S S S S S E S S
|------------------------------------|---------------------------|
|------------------------------------|---------------------------|
|----1--------1--------1---1---1-3---|---1---1-----1---1---------|
|--------------------3---------------|-----------3-----------1-3-|
|------------------------------------|---------------------------|
|------------------------------------|---------------------------|


   E   S  S  +E    S S H
|--9------9--(9)---8-------------------*|
|--9------9--(9)---9-------------------*|
|-10-----10-(10)---8-------------------*|
|--------------------------------------*|
|--------------------------------------*|
|--------------------------------------*|
|
|  S S E      S  E   S S S S S S S S S
|--------------------------------------*|
|--------------------------------------*|
|----1--------1--------1---1-----1---1-*|
|--------------------3-----------------*|
|--------------------------------------*|
|--------------------------------------*|



Duration Legend
---------------
W - whole; H - half; Q - quarter; E - 8th; S - 16th; T - 32nd; X - 64th; a - acciaccatura
+ - note tied to previous; . - note dotted; .. - note double dotted
Uncapitalized letters represent notes that are staccato (1/2 duration)
Irregular groupings are notated above the duration line
Duration letters will always appear directly above the note/fret number it represents the
duration for.  Duration letters with no fret number below them represent rests.  Multi-
bar rests are notated in the form Wxn, where n is the number of bars to rest for.  Low
melody durations appear below the staff

Tablature Legend
----------------
 h   - hammer-on
 p   - pull-off
 b   - bend
 pb  - pre-bend
 r   - bend release (if no number after the r, then release immediately)
 /\  - slide into or out of (from/to "nowhere")
 s   - legato slide
 S   - shift slide
 - natural harmonic
[n]  - artificial harmonic
n(n) - tapped harmonic
 ~   - vibrato
 tr  - trill
 T   - tap
 TP  - trem. picking
 PM  - palm muting
\n/  - tremolo bar dip; n = amount to dip
 \n  - tremolo bar down
 n/  - tremolo bar up
/n\  - tremolo bar inverted dip
 =   - hold bend; also acts as connecting device for hammers/pulls
 <> - volume swell (louder/softer)
 x   - on rhythm slash represents muted slash
 o   - on rhythm slash represents single note slash

Misc Legend
-----------
 |  - bar
||  - double bar
||o - repeat start
o|| - repeat end
*|  - double bar (ending)
 :  - bar (freetime)
 $  - Segno
 &  - Coda
Tempo markers -  = BPM(8/16=s8/s16), where s8 = swing 8ths, s16 = swing 16ths    
RIck Rolld
comments
print report bad tab
I want to post or [tab]
guest
You may want to rate the tab now too:
select rating
Please do not post tabs as comments. Select "correction" instead!