Oops, an error
Loading. Please wait.

Deadmaker Tab

951 views 1 this week
no commentswrite comment
1 2 3 4 5
excellent!
x 2
Autoscroll
+/-
esc
set tempo
stop
WARNING: You are trying to view
                                    content from Ultimate-Guitar.com
                                    in an unauthorized application,
                                    which is prohibited.

                                    Please use an official Ultimate
                                    Guitar Tabs application for iPhone,
                                    iPad or Android to access legitimate
                                    chords, guitar, bass, and drum tabs
                                    from Ultimate-Guitar.com database.

                                    Type "ultimate guitar tabs" in Apple
                                    App Store's or Android Market's
                                    search to find the application.
Deadmaker
By Edguy


From album "Kingdom Of Madness" (1997)

Transcribed by Teemu Haapanen
Email: thaapanen@pp.nic.fi



 Intro Riff (Gtr.1&2) (4x)
|------------------------------|
|*----------------------------*|
|-----4------------------------|
|----------4----5----2----4----|
|*-22---22---22---22---22---2-*|
|------------------------------|
   ..   ..   ..   ..   ..   .



  Riff 1 (Gtr.1) (12x)
|------------------------------|
|*----------------------------*|
|-----4------------------------|
|----------4----5----2----4----|
|*-22---22---22---22---22---2-*|
|------------------------------|
|  ..   ..   ..   ..   ..   .  |
|                              |
|                              |
| Riff 1 (Gtr.2) (12x)         |
|------------------------------|
|*----------------------------*|
|------------------------------|
|--4---------------------------|
|*-2----------------------2-2-*|
|------------------------------|
                          . .


  Riff 2 (Gtr.1) (4x)
|--------------------------------------------|
|*------------------------------------------*|
|--4--------------------5----------2---------|
|--2--------------------2----------0---------|
|*------------------------------------------*|
|--------------------------------------------|
|
|
| Riff 2 (Gtr.2) (4x)
|--------------------------------------------|
|*------------------------------------------*|
|--------------------------------------------|
|--------------------------------------------|
|*-2-2-2--2-2-2--2-2-2--2-2-2--2-2-2--2-2-2-*|
|--0-0-0--0-0-0--0-0-0--0-0-0--0-0-0--0-0-0--|
   . . .  . . .  . . .  . . .  . . .  . . .


 Riff 2 (4x)
 
 Riff 1 (4x)
 
 Riff 2 (4x)

 Riff 1 (4x)
 

 Riff 3 (Gtr.1)
|---------------------------------------------------------------------------------------------|
|---------------------------------------------------------------------------------------------|
|-----------------------------------------------------44-------2h4p2--------44-------2h4p2----|
|-5--------5--5--------5--5--------5--5--------5--2255--004455-------54-2255--004455-------54-|
|-3-33-3-3-3--3-33-3-3-3--3-33-3-3-3--3-33-3-3-3----------------------------------------------|
|---------------------------------------------------------------------------------------------|
|   .. . .      .. . .      .. . .      .. . .    ............       .. ............       ..
|
|
|---------------------------------------------------------------|
|---------------------------------------------------------------|
|---------------------------------------------------------------|
|-5--------5--5--------5--5--------5--5--------5---4---4-----7--|
|-3-33-3-3-3--3-33-3-3-3--3-33-3-3-3--3-33-3-3-3---2---2--5--5--|
|---------------------------------------------------------3-----|
|   .. . .      .. . .      .. . .      .. . .
|
|
| Riff 3 (Gtr.2)
|---------------------------------------------------------------------------------------------|
|---------------------------------------------------------------------------------------------|
|---------------------------------------------------------------------------------------------|
|-5--------5--5--------5--5--------5--5--------5--9-----7---------------9-----7---------------|
|-3-33-3-3-3--3-33-3-3-3--3-33-3-3-3--3-33-3-3-3--7-----5---------------7-----5---------------|
|---------------------------------------------------------------------------------------------|
|   .. . .      .. . .      .. . .      .. . .
|
|
|---------------------------------------------------------------|
|---------------------------------------------------------------|
|---------------------------------------------------------------|
|-5--------5--5--------5--5--------5--5--------5---4---4-----7--|
|-3-33-3-3-3--3-33-3-3-3--3-33-3-3-3--3-33-3-3-3---2---2--5--5--|
|---------------------------------------------------------3-----|
    .. . .      .. . .      .. . .      .. . .



 Chorus (Gtr.1&2) (2x)
|------------------------------------------------------------------------|
|*----------------------------------------------------------------------*|
|--------------5----------------5----------------5-----------------------|
|-------5-4--5---7-------5-4--5---7-------5-4--5---7--7----7p5p4--5--7---|
|*-2----------------2----------------5----------------5-55--------3--5--*|
|--0-00-------------0-00-------------3-33--------------------------------|
     ..               ..               ..               ..


 Riff 2 (6x)

 Riff 1 (4x)
 
 Riff 3

 Chorus (2x)


  Interlude 1 (Gtr.1) (2x)
|---------------------------------------------------------------|
|*--------------------------------------------------------------|
|--4----4---2---4---5---4---2-----4----4---2---4---5---4---2----|
|-----2---2---2---2---2---2---22-----2---2---2---2---2---2---22-|
|*--------------------------------------------------------------|
|---------------------------------------------------------------|
|     . . . . . . . . . . . . ..     . . . . . . . . . . . . ..
|
|
|---------------------------------------------------------------|
|--------------------------------------------------------------*|
|-5----5---4---5---7---5---4-----5----5---4---5---7---5---4-----|
|----7---7---7---7---7---7---77-----3---3---3---3---3---3---33--|
|--------------------------------------------------------------*|
|---------------------------------------------------------------|
|    . . . . . . . . . . . . ..     . . . . . . . . . . . . ..
|
|
| Interlude 1 (Gtr.2) (2x)
|---------------------------------------------------------------|
|*--------------------------------------------------------------|
|---------------------------------------------------------------|
|---------------------------------------------------------------|
|*-2--------2-------2-------2-----2--------2-------2-------2----|
|--0--------0-------0-------0-----0--------0-------0-------0----|
|              (2nd Time)                      (2nd Time)
|          [.................]            [.................]
|
|
|---------------------------------------------------------------|
|--------------------------------------------------------------*|
|---------------------------------------------------------------|
|-2--------2-------2-------2------------------------------------|
|-0--------0-------0-------0-----3-----------------------------*|
|--------------------------------1------------------------------|
              (2nd Time)
          [.................]



  Interlude 2 (Gtr.1)
|---------------------------------------------------------------|
|---------------------------------------------------------------|
|-4----4---2---4---5---4---2-----4----4---2---4---5---4---2-----|
|----2---2---2---2---2---2---22-----2---2---2---2---2---2---22--|
|---------------------------------------------------------------|
|---------------------------------------------------------------|
|    . . . . . . . . . . . . ..     . . . . . . . . . . . . ..
|
|
|                                                          (1st)  (2nd)
|---------------------------------------------------------|-----|----------------------|
|---------------------------------------------------------|-----|----------------------|
|-5----5---4---5---7---5---4-----5----5---4---5---7---5---|4----|-4---5---4~-4/--------|
|----7---7---7---7---7---7---77-----3---3---3---3---3---3-|--33-|---3---3-----------7--|
|---------------------------------------------------------|-----|----------------5--5--|
|---------------------------------------------------------|-----|----------------3-----|
|    . . . . . . . . . . . . ..     . . . . . . . . . . .  . ..   . . . .
|
|
| Interlude 2 (Gtr.2)
|---------------------------------------------------------------|
|---------------------------------------------------------------|
|---------------------------------------------------------------|
|-5----5---4---5---7---5---4-----5----5---4---5---7---5---4-----|
|----7---7---7---7---7---7---77-----7---7---7---7---7---7---77--|
|---------------------------------------------------------------|
|    . . . . . . . . . . . . ..     . . . . . . . . . . . . ..
|
|
|                                                          (1st)  (2nd)
|---------------------------------------------------------|-----|----------------------|
|---------------------------------------------------------|-----|----------------------|
|---------------------------------------------------------|-----|----------------------|
|-7----7---5---7---9---7---5-----7----7---5---7---9---7---|5----|-5---7---4~-4/-----7--|
|----0---0---0---0---0---0---00-----8---8---8---8---8---8-|--88-|---8---8--------5--5--|
|---------------------------------------------------------|-----|----------------3-----|
|    . . . . . . . . . . . . ..     . . . . . . . . . . .  . ..   . . . .
|
|
| Interlude 2 (Gtr.3)
|--------------------------------------------------------------------------------------|
|*-------------------------------------------------------------------------------------|
|--------------------------------------------------------------------------------------|
|--------------------------------------------------------------------------------------|
|*-2-----------------------------2-----------------------------------------------------|
|--0-----------------------------0-----------------------------------------------------|
|
|
|                                                                 (2nd)
|---------------------------------------------------------------|----------------------|
|--------------------------------------------------------------*|----------------------|
|---------------------------------------------------------------|----------------------|
|-2-------------------------------------------------------------|---------4--4------7--|
|-0------------------------------3-----------------------------*|---------2--2---5--5--|
|--------------------------------1------------------------------|----------------3-----|



 Chorus (Gtr.1&2) (4x)                                                   (4th)
|------------------------------------------------------------------------|---|
|*----------------------------------------------------------------------*|---|
|--------------5----------------5----------------5-----------------------|---|
|-------5-4--5---7-------5-4--5---7-------5-4--5---7--7----7p5p4--5--7---|---|
|*-2----------------2----------------5----------------5-55--------3--5--*|-2-|
|--0-00-------------0-00-------------3-33--------------------------------|-0-|
     ..               ..               ..               ..




 . = palm mute
 ~ = vibrato
 / = slide up
 p = pull off
 h = hammer on
comments
We did not receive enough feedback on this tab! Please rate:
print report bad tab
1 2 3 4 5
I want to post or [tab]
guest
You may want to rate the tab now too:
select rating
Please do not post tabs as comments. Select "correction" instead!