Oops, an error
Loading. Please wait.

Vain Glory Opera Tab

ver1
ver1

Whole song

Interactive

More versions @911Tabs.com
2,884 views 3 this week
no commentswrite comment
1 2 3 4 5
please rate
Autoscroll
+/-
esc
set tempo
stop
Contributor
Hey! There's an official Ultimate Guitar app which is ideal
for learning songs when you're away from computer. Get the app
WARNING: You are trying to view
                                    content from Ultimate-Guitar.com
                                    in an unauthorized application,
                                    which is prohibited.

                                    Please use an official Ultimate
                                    Guitar Tabs application for iPhone,
                                    iPad or Android to access legitimate
                                    chords, guitar, bass, and drum tabs
                                    from Ultimate-Guitar.com database.

                                    Type "ultimate guitar tabs" in Apple
                                    App Store's or Android Market's
                                    search to find the application.
#----------------------------------PLEASE NOTE---------------------------------#
#This file is the author's own work and represents their interpretation of the #
#song. You may only use this file for private study, scholarship, or research. #
#------------------------------------------------------------------------------#

VAIN GLORY OPERA
As recorded by Edguy
(From the 1998 Album VAIN GLORY OPERA)


Transcribed by Christian Einarsson

 Words and Music by Tobias Sammet

 

Gm
x x x 12 11 10 Eb
x x x x x 11 F
x x x 10 10 8 Bb
x x x x 11 10 
Cm/G
x x x 12 13 11 Cm
x x x x 13 11 G#
x x x 13 x x Dm/Bb
x x x 15 15 13 
CmXV
x x x 17 16 15 Fm
x x x x 18 16 BbXV
x x x 15 15 x Cm/Ab
x x 18 17 16 x 
Eb6/G
x x 17 17 16 x G#XI
x x x 13 13 11 F6sus4
x x 15 15 15 x Eb/G
x x 17 x 16 x 
G#XVIII
x x 18 x x x 


Gtr I (E A D G B E) - 'Keyboard'
Gtr II (E A D G B E) - 'Distortion Guitar ( Dirk Sauer )'
Gtr III (E A D G B E) - 'Distortion Guitar ( Jens Ludwig )'
Gtr IV (E A D G B E) - 'Vocal ( Tobias Sammet )'
Gtr V (E A D G B E) - 'Choir (Outro)'
Gtr VI (E A D G B E) - 'Choir'


   Intro
    Q=134
    Gm                   Gm              Eb                   Eb
   4/4
    Gtr VI
    W                    +W              W                    +W
    |                     |              |                     |
    /                     /              /                     /

    Gtr I
    Q.    E  E  E  E E    Q   Q  Q  Q    Q.    E  E  E  E E    Q   Q  Q   Q
||-------------------8-|---------------|------------------8-|-----------------|
||o-8----10-11-10-11---|-11--10--8--6--|-8----10-11-10-11---|-11--10--8--10---|
||---------------------|---------------|--------------------|-----------------|
||---------------------|---------------|--------------------|-----------------|
||o--------------------|---------------|--------------------|-----------------|
||---------------------|---------------|--------------------|-----------------|


  F                  F               Bb    Eb      F
 4/4
  W                  +W               H     H       W
  |                   |               |     |       |
  /                   /               /     /       /

  Q.   E  E E E  E    Q   Q  Q  Q     H     H       H     Q   Q
|------------------|---------------|-------------|----------------||
|-6----8-10-6-8-10-|-11--10--8--6--|-15----16----|-13----11--10--o||
|------------------|---------------|-------------|----------------||
|------------------|---------------|-------------|----------------||
|------------------|---------------|-------------|---------------o||
|------------------|---------------|-------------|----------------||


  Gm                             Gm
  Gtr VI
  W                              +W
  |                               |
  /                               /

  Gtr I
  Q.        E    E  E    E E      Q      Q     Q     Q
|--------------------------8---|----------------------------|
|-8--------10---11-10---11-----|-11-----10-----8-----6------|
|------------------------------|----------------------------|
|------------------------------|----------------------------|
|------------------------------|----------------------------|
|------------------------------|----------------------------|
|
| Gtrs II, III
| PM---------------------------------------------------------
| E  S S E  S S  E  S S  E S S    E S S  E S S E S S E S S
|------------------------------|----------------------------|
|------------------------------|----------------------------|
|------------------------------|----------------------------|
|------------------------------|----------------------------|
|-5--5-5-5--5-5--5--5-5--5-5-5-|--5-5-5--5-5-5-5-5-5-5-5-5/-|
|-3--3-3-3--3-3--3--3-3--3-3-3-|--3-3-3--3-3-3-3-3-3-3-3-3/-|


  Eb                             Eb
  W                              +W
  |                               |
  /                               /

  Q.        E    E  E    E E      Q      Q     Q      Q
|--------------------------8---|------------------------------|
|-8--------10---11-10---11-----|-11-----10-----8-----10-------|
|------------------------------|------------------------------|
|------------------------------|------------------------------|
|------------------------------|------------------------------|
|------------------------------|------------------------------|
|
|-------------------------------------------------------|
| E  S S E  S S  E  S S  E S S    E S S  E S S E S S  E E
|------------------------------|------------------------------|
|------------------------------|------------------------------|
|------------------------------|------------------------------|
|-8--8-8-8--8-8--8--8-8--8-8-8-|--8-8-8--8-8-8-8-8-8--8-8\----|
|-6--6-6-6--6-6--6--6-6--6-6-6-|--6-6-6--6-6-6-6-6-6--6-6\----|
|------------------------------|------------------------------|


  F                            F
  W                            +W
  |                             |
  /                             /

  Q.       E    E E   E  E      Q      Q     Q     Q
|----------------------------|----------------------------|
|-6--------8---10-6---8-10---|-11-----10-----8-----6------|
|----------------------------|----------------------------|
|----------------------------|----------------------------|
|----------------------------|----------------------------|
|----------------------------|----------------------------|
|
| PM-------------------------------------------------------
| E  S S E S S  E S S E  S S    E S S  E S S E S S E S S
|----------------------------|----------------------------|
|----------------------------|----------------------------|
|----------------------------|----------------------------|
|----------------------------|----------------------------|
|-3--3-3-3-3-3--3-3-3-3--3-3-|--3-3-3--3-3-3-3-3-3-3-3-3/-|
|-1--1-1-1-1-1--1-1-1-1--1-1-|--1-1-1--1-1-1-1-1-1-1-1-1/-|


  Bb           Eb              F
   H            H               W
   |            |               |
   /            /               /

   H            H               H            Q      Q
|----------------------------|-----------------------------|
|-15-----------16------------|-13-----------11-----10------|
|----------------------------|-----------------------------|
|----------------------------|-----------------------------|
|----------------------------|-----------------------------|
|----------------------------|-----------------------------|
|
|-----------------------------------------------------|
|  E S S E S S  E S S E S S     E S S E S S  E S S  E E
|----------------------------|-----------------------------|
|----------------------------|-----------------------------|
|----------------------------|-----------------------------|
|--3-3-3-3-3-3--3-3-3-3-3-3\-|-----------------------------|
|--1-1-1-1-1-1--1-1-1-1-1-1\-|--3-3-3-3-3-3--3-3-3--7-7----|
|----------------------------|--1-1-1-1-1-1--1-1-1--5-5----|


  Gm                             Gm
  W                              +W
  |                               |
  /                               /

  Q.        E    E  E    E E      Q      Q     Q     Q
|--------------------------8---|----------------------------|
|-8--------10---11-10---11-----|-11-----10-----8-----6------|
|------------------------------|----------------------------|
|------------------------------|----------------------------|
|------------------------------|----------------------------|
|------------------------------|----------------------------|
|
| PM---------------------------------------------------------
| E  S S E  S S  E  S S  E S S    E S S  E S S E S S E S S
|------------------------------|----------------------------|
|------------------------------|----------------------------|
|------------------------------|----------------------------|
|------------------------------|----------------------------|
|-5--5-5-5--5-5--5--5-5--5-5-5-|--5-5-5--5-5-5-5-5-5-5-5-5/-|
|-3--3-3-3--3-3--3--3-3--3-3-3-|--3-3-3--3-3-3-3-3-3-3-3-3/-|


  Eb                             Eb
  W                              +W
  |                               |
  /                               /

  Q.        E    E  E    E E      Q      Q     Q      Q
|--------------------------8---|------------------------------|
|-8--------10---11-10---11-----|-11-----10-----8-----10-------|
|------------------------------|------------------------------|
|------------------------------|------------------------------|
|------------------------------|------------------------------|
|------------------------------|------------------------------|
|
|-------------------------------------------------------|
| E  S S E  S S  E  S S  E S S    E S S  E S S E S S  E E
|------------------------------|------------------------------|
|------------------------------|------------------------------|
|------------------------------|------------------------------|
|-8--8-8-8--8-8--8--8-8--8-8-8-|--8-8-8--8-8-8-8-8-8--8-8\----|
|-6--6-6-6--6-6--6--6-6--6-6-6-|--6-6-6--6-6-6-6-6-6--6-6\----|
|------------------------------|------------------------------|


  F                            F                            Bb           Eb
  W                            +W                            H            H
  |                             |                            |            |
  /                             /                            /            /

  Q.       E    E E   E  E      Q      Q     Q     Q         H            H
|----------------------------|----------------------------|----------------------------|
|-6--------8---10-6---8-10---|-11-----10-----8-----6------|-15-----------16------------|
|----------------------------|----------------------------|----------------------------|
|----------------------------|----------------------------|----------------------------|
|----------------------------|----------------------------|----------------------------|
|----------------------------|----------------------------|----------------------------|
|
| PM------------------------------------------------------------------------------------
| E  S S E S S  E S S E  S S    E S S  E S S E S S E S S     E S S E S S  E S S E S S
|----------------------------|----------------------------|----------------------------|
|----------------------------|----------------------------|----------------------------|
|----------------------------|----------------------------|----------------------------|
|----------------------------|----------------------------|--3-3-3-3-3-3--3-3-3-3-3-3\-|
|-3--3-3-3-3-3--3-3-3-3--3-3-|--3-3-3--3-3-3-3-3-3-3-3-3/-|--1-1-1-1-1-1--1-1-1-1-1-1\-|
|-1--1-1-1-1-1--1-1-1-1--1-1-|--1-1-1--1-1-1-1-1-1-1-1-1/-|----------------------------|


  F                          Gm         Gm          Bb5 G5
   W                         W          +W
   |                         |           |
   /                         /           /

   H            Q      Q     W          +W
|--------------------------|----------|--------------------||
|-13-----------11-----10---|-8--------|-(8)----------------||
|--------------------------|----------|--------------------||
|--------------------------|----------|--------------------||
|--------------------------|----------|--------------------||
|--------------------------|----------|--------------------||
|
|------------------------|
|  E S S E S S  E S S  E E   W          +H     +Q   S S E
|--------------------------|----------|--------------------||
|--------------------------|----------|--------------------||
|--------------------------|----------|--------------------||
|--------------------------|-5--------|-(5)----(5)--3s5----||
|--3-3-3-3-3-3--3-3-3--7-7-|-5--------|-(5)----(5)--1s3-5\-||
|--1-1-1-1-1-1--1-1-1--5-5-|-3--------|-(3)----(3)------3\-||


 Verse 1
  Gm                         Gm
  Gtr VI
  W                          +W
  |                           |
  /                           /

  Gtrs II, III
  PM-------------------------------------------------------
  E  S S E S S E S S E S S    E S S E  S  S E S S  E S S
|--------------------------|------------------------------|
|--------------------------|------------------------------|
|--------------------------|------------------------------|
|--------------------------|------------------------------|
|-5--5-5-5-5-5-5-5-5-5-5-5-|--5-5-5-5--5--5-5-5-5--5-5-5/-|
|-3--3-3-3-3-3-3-3-3-3-3-3-|--3-3-3-3--3--3-3-3-3--3-3-3/-|
|
| Gtr IV
| H.                 E E      E Q      Q.          Q
|--------------------------|------------------------------|
|----------------------8---|--8-8-----10----------11------|
|--------------------------|------------------------------|
|--------------------------|------------------------------|
|--------------------------|------------------------------|
|--------------------------|------------------------------|


  Eb                           Eb
   W                           +W
   |                            |
   /                            /

 -------------------------------------------------------|
   E S S E S S E S S  E  S S    E S S  E  S  S E S S  E  E
|----------------------------|---------------------------------|
|----------------------------|---------------------------------|
|----------------------------|---------------------------------|
|--8-8-8-8-8-8-8-8-8--8--8-8-|--8-8-8--8--8--8-8-8-8--8-10\----|
|--6-6-6-6-6-6-6-6-6--6--6-6-|--6-6-6--6--6--6-6-6-6--6--8\----|
|----------------------------|---------------------------------|
|
|  Q     H            E  E      Q      E  Q.          Q
|----------------------------|---------------------------------|
|-11-----8-----------15-15---|-15-----13-11----------13--------|
|----------------------------|---------------------------------|
|----------------------------|---------------------------------|
|----------------------------|---------------------------------|
|----------------------------|---------------------------------|


  F                              F
   W                             +W
   |                              |
   /                              /

   PM-----------------------------------------------------------
   E  S S E S S E S S   E  S S    E  S S E  S  S E S S  E S S
|------------------------------|-------------------------------|
|------------------------------|-------------------------------|
|------------------------------|-------------------------------|
|------------------------------|-------------------------------|
|--3--3-3-3-3-3-3-3-3---3--3-3-|--3--3-3-3--3--3-3-3-3--3-3-3/-|
|--1--1-1-1-1-1-1-1-1---1--1-1-|--1--1-1-1--1--1-1-1-1--1-1-1/-|
|
|  H.                  +Q         E  Q      Q.          Q
|------------------------------|-------------------------------|
|-10------------------(10)-----|-18-15-----15----------13------|
|------------------------------|-------------------------------|
|------------------------------|-------------------------------|
|------------------------------|-------------------------------|
|------------------------------|-------------------------------|


  Bb             Eb                 F
   H              H                  W
   |              |                  |
   /              /                  /

 ---------------------------------------------------------------|
   E  S S E  S S  E  S S E   S  S    E  S  S  E  S S E   S  S E E
|---------------------------------|-----------------------------------|
|---------------------------------|-----------------------------------|
|---------------------------------|-----------------------------------|
|--3--3-3-3--3-3--3--3-3-3---3--3-|--3--3--3--3--3-3-3---3--3-7-7\----|
|--1--1-1-1--1-1--1--1-1-1---1--1-|--1--1--1--1--1-1-1---1--1-5-5\----|
|---------------------------------|-----------------------------------|
|
|  Q.        E    E  Q      +E       E.    E.    Q      +E    Q
|---------------------------------|-----------------------------------|
|-15--------15---16-16-----(16)---|-13----13----13-----(13)-----------|
|---------------------------------|-----------------------------------|
|---------------------------------|-----------------------------------|
|---------------------------------|-----------------------------------|
|---------------------------------|-----------------------------------|


  Gm                        Gm
  W                         +W
  |                          |
  /                          /

  PM-------------------------------------------------------
  E S S E S S E S S E S S    E  S S E  S  S E S S  E S S
|-------------------------|-------------------------------|
|-------------------------|-------------------------------|
|-------------------------|-------------------------------|
|-------------------------|-------------------------------|
|-5-5-5-5-5-5-5-5-5-5-5-5-|--5--5-5-5--5--5-5-5-5--5-5-5/-|
|-3-3-3-3-3-3-3-3-3-3-3-3-|--3--3-3-3--3--3-3-3-3--3-3-3/-|
|
| W                          E  Q      Q.          Q
|-------------------------|-------------------------------|
|-------------------------|-20-20-----22----------23------|
|-------------------------|-------------------------------|
|-------------------------|-------------------------------|
|-------------------------|-------------------------------|
|-------------------------|-------------------------------|


  Eb                         Eb
   W                         +W
   |                          |
   /                          /

 -------------------------------------------------|
   E S S E S S E S S E S S    E S S E S S E S S E  E
|--------------------------|-----------------------------|
|--------------------------|-----------------------------|
|--------------------------|-----------------------------|
|--8-8-8-8-8-8-8-8-8-8-8-8-|--8-8-8-8-8-8-8-8-8-8-10\----|
|--6-6-6-6-6-6-6-6-6-6-6-6-|--6-6-6-6-6-6-6-6-6-6--8\----|
|--------------------------|-----------------------------|
|
|  W                          W
|--------------------------|-----------------------------|
|-23-----------------------|-----------------------------|
|--------------------------|-----------------------------|
|--------------------------|-----------------------------|
|--------------------------|-----------------------------|
|--------------------------|-----------------------------|


  F                           F
  W                           +W
  |                            |
  /                            /

  PM---------------------------------------------------------
  E  S S E S S E S S E  S S    E  S S E  S  S E S S  E S S
|---------------------------|-------------------------------|
|---------------------------|-------------------------------|
|---------------------------|-------------------------------|
|---------------------------|-------------------------------|
|-3--3-3-3-3-3-3-3-3-3--3-3-|--3--3-3-3--3--3-3-3-3--3-3-3/-|
|-1--1-1-1-1-1-1-1-1-1--1-1-|--1--1-1-1--1--1-1-1-1--1-1-1/-|
|
| H.                 E  E      E  Q      Q.          Q
|---------------------------|-------------------------------|
|----------------------18---|-18-18-----20----------22------|
|---------------------------|-------------------------------|
|---------------------------|-------------------------------|
|---------------------------|-------------------------------|
|---------------------------|-------------------------------|


  Bb           Eb                  F
   H             H                  W
   |             |                  |
   /             /                  /

 ---------------------------------------------------------------|
   E S S E S S   E   S S  E  S S    E  S  S  E  S  S E S S  E S S
|--------------------------------|----------------------------------||
|--------------------------------|----------------------------------||
|--------------------------------|----------------------------------||
|--3-3-3-3-3-3---3---3-3--3--3-3-|--3--3--3--3--3--3-3-3-3--7-7-7---||
|--1-1-1-1-1-1---1---1-1--1--1-1-|--1--1--1--1--1--1-1-1-1--5-5-5---||
|--------------------------------|----------------------------------||
|
|  H            +E   E    E  E      E.    E.    Q.          Q
|--------------------------------|----------------------------------||
|-23-----------(23)-23---23-23---|-23----22----20----------22-------||
|--------------------------------|----------------------------------||
|--------------------------------|----------------------------------||
|--------------------------------|----------------------------------||
|--------------------------------|----------------------------------||


 Bridge
  Cm/G                                Cm/G
  Gtr VI
   W                                  +W
   |                                   |
   /                                   /

  Gtrs II, III
   PM---------------------------------------------------------------------
   S S S S S S S S  S S S S S S S S    S S S S S S S S  S S S S S S S S
|-----------------------------------|------------------------------------|
|-----------------------------------|------------------------------------|
|-----------------------------------|------------------------------------|
|--5-5-5-5-5-5-5-5--5-5-5-5-5-5-5-5-|--5-5-5-5-5-5-5-5--5-5-5-5-5-5-5-5\-|
|--3-3-3-3-3-3-3-3--3-3-3-3-3-3-3-3-|--3-3-3-3-3-3-3-3--3-3-3-3-3-3-3-3\-|
|-----------------------------------|------------------------------------|
|
| Gtr IV
|  H                H                  H                H
|-----------------------------------|------------------------------------|
|-20---------------22---------------|-23---------------25----------------|
|-----------------------------------|------------------------------------|
|-----------------------------------|------------------------------------|
|-----------------------------------|------------------------------------|
|-----------------------------------|------------------------------------|


  Bb                              Bb
   W                               +W
   |                                |
   /                                /

 ------------------------------------------------------------|
   E  S  S  E  S S  E S S E S S     E  S S E S S E  S S E  S S
|-------------------------------|---------------------------------|
|-------------------------------|---------------------------------|
|-------------------------------|---------------------------------|
|-------------------------------|---------------------------------|
|--5--5--5--5--5-5--5-5-5-5-5-5-|---5--5-5-5-5-5-5--5-5-5--5-5----|
|--3--3--3--3--3-3--3-3-3-3-3-3-|---3--3-3-3-3-3-3--3-3-3--3-3----|
|
|  E.    E.    E    H              +H            Q.        E
|-------------------------------|---------------------------------|
|-27----25----23---20-----------|-(20)--------------------15------|
|-------------------------------|---------------------------------|
|-------------------------------|---------------------------------|
|-------------------------------|---------------------------------|
|-------------------------------|---------------------------------|


  Cm                                Cm
   W                                +W
   |                                 |
   /                                 /

   E  S  S  E  E  S  S E E   S  S    E E S S E E S S E E
|---------------------------------|----------------------|
|---------------------------------|----------------------|
|---------------------------------|----------------------|
|--5-----------3---------5--------|----6-------5-----3-5-|
|--3--3--3--3--3--3--3-3-3---3--3-|--3-3-3-3-3-3-3-3-3-3-|
|---------------------------------|----------------------|
|
|  E.    E.    E  Q.        +E       W
|---------------------------------|----------------------|
|-13----13----15-16--------(16)---|----------------------|
|---------------------------------|----------------------|
|---------------------------------|----------------------|
|---------------------------------|----------------------|
|---------------------------------|----------------------|


  G#                      Dm/Bb           Dm/Bb
   W                      H               +E  Q   E
   |                      |                |
   /                      /                /

   Q      E  E  E E E E   S S S S S S S S  E.   Q   S
|-----------------------|------------------------------||
|-----------------------|------------------------------||
|-----------------------|------------------------------||
|-----------------------|------------------------------||
|--6------6--6--6-6-6-6-|-8-8-8-8-8-8-8-8--8-----------||
|--4------4--4--4-4-4-4-|-6-6-6-6-6-6-6-6--6-----------||
|
|  E.  E.    E  H         W
|-----------------------|------------------------------||
|-16--16----15-13-------|------------------------------||
|-----------------------|------------------------------||
|-----------------------|------------------------------||
|-----------------------|------------------------------||
|-----------------------|------------------------------||


 Chorus
  CmXV               Fm
  Gtr VI
  W                    W
  |                    |
  /                    /

  Gtrs II, III
  W                    W
|------------------|---------------------|
|------------------|---------------------|
|------------------|---------------------|
|-5----------------|---------------------|
|-3----------------|---3-----------------|
|------------------|---1-----------------|
|
| Gtr IV
| Q   Q   Q   E  E    +Q    Q   Q   E  E
|------------------|---------------------|
|----16--18--20-21-|-(21)--20--18--20-18-|
|------------------|---------------------|
|------------------|---------------------|
|------------------|---------------------|
|------------------|---------------------|


  BbXV                  Cm/Ab     Dm/Bb
    W                     H        H
    |                     |        |
    /                     /        /

    W                     H        H
|---------------------|----------------------|
|---------------------|----------------------|
|---------------------|----------------------|
|---3-----------------|----------------------|
|---1-----------------|---6--------8---------|
|---------------------|---4--------6---------|
|
|  +Q    Q   Q   E  E    +Q    Q   Q   E  E
|---------------------|----------------------|
|-(18)--15--16--18-20-|-(20)--18--16--15-16--|
|---------------------|----------------------|
|---------------------|----------------------|
|---------------------|----------------------|
|---------------------|----------------------|


  Eb6/G                 G#                    Dm/Bb          Dm/Bb  G# Dm/Bb
    W                     W                     W            +H     Q  Q
    |                     |                     |             |     |  |
    /                     /                     /             /     /  /

    W                     W                     W            +H     Q  Q
|---------------------|---------------------|--------------|---------------|
|---------------------|---------------------|--------------|---------------|
|---------------------|---------------------|--------------|---------------|
|---5-----------------|---------------------|--------------|---------------|
|---3-----------------|---6-----------------|---8----------|-(8)----6--8---|
|---------------------|---4-----------------|---6----------|-(6)----4--6---|
|
|  +Q    Q   E  Q   E    +Q    Q   E  Q   E    +H.      Q     W
|---------------------|---------------------|--------------|---------------|
|-(16)--16--18-20--21-|-(21)--20--18-20--18-|-(18)---------|---------------|
|---------------------|---------------------|--------------|---------------|
|---------------------|---------------------|--------------|---------------|
|---------------------|---------------------|--------------|---------------|
|---------------------|---------------------|--------------|---------------|


  CmXV               Fm
  W                    W
  |                    |
  /                    /

  W                    W
|------------------|---------------------|
|------------------|---------------------|
|------------------|---------------------|
|-5----------------|---------------------|
|-3----------------|---3-----------------|
|------------------|---1-----------------|
|
| Q   Q   Q   E  E    +Q    Q   Q   E  E
|------------------|---------------------|
|----16--18--20-21-|-(21)--20--18--20-18-|
|------------------|---------------------|
|------------------|---------------------|
|------------------|---------------------|
|------------------|---------------------|


  BbXV                  Cm/Ab     Dm/Bb
    W                     H        H
    |                     |        |
    /                     /        /

    W                     H        H
|---------------------|----------------------|
|---------------------|----------------------|
|---------------------|----------------------|
|---3-----------------|----------------------|
|---1-----------------|---6--------8---------|
|---------------------|---4--------6---------|
|
|  +Q    Q   Q   E  E    +Q    Q   Q   E  E
|---------------------|----------------------|
|-(18)--15--16--18-20-|-(20)--18--16--15-16--|
|---------------------|----------------------|
|---------------------|----------------------|
|---------------------|----------------------|
|---------------------|----------------------|


  Eb6/G                 G#
    W                     W
    |                     |
    /                     /

    W                     W
|---------------------|---------------------|
|---------------------|---------------------|
|---------------------|---------------------|
|---5-----------------|---------------------|
|---3-----------------|---6-----------------|
|---------------------|---4-----------------|
|
|  +Q    Q   E  Q   E    +Q    Q   E  Q   E
|---------------------|---------------------|
|-(16)--16--18-20--21-|-(21)--20--18-20--18-|
|---------------------|---------------------|
|---------------------|---------------------|
|---------------------|---------------------|
|---------------------|---------------------|


  Dm/Bb          Dm/Bb
    W            +E  H      Q  E
    |             |
    /             /

    W             E.   H.        S
|--------------|-------------------||
|--------------|-------------------||
|--------------|-------------------||
|--------------|-------------------||
|---8----------|-/8\---------------||
|---6----------|-/6\---------------||
|
|  +H.      Q     W
|--------------|-------------------||
|-(18)---------|-------------------||
|--------------|-------------------||
|--------------|-------------------||
|--------------|-------------------||
|--------------|-------------------||


 Bridge
  C5        F5/C      C5          Ab/C      C5    F5/C
  Gtrs II, III
  E S S S S E S S S S E S S   S S E S S S S E S S E E
|---------------------------|-------------------------|
|---------------------------|-------------------------|
|---------------------------|-------------------------|
|-5---------3---------5-----|-----6---------5-----3-5-|
|-3-3-3-3-3-3-3-3-3-3-3-3-3-|-3-3-3-3-3-3-3-3-3-3-3-3-|
|---------------------------|-------------------------|


  C5        F5/C      C5          Ab/C      C5    C5
  E S S S S E S S S S E S S   S S E S S S S E S S E +E
|---------------------------|-----------------------------||
|---------------------------|-----------------------------||
|---------------------------|-----------------------------||
|-5---------3---------5-----|-----6---------5-----5-(5)b7-||
|-3-3-3-3-3-3-3-3-3-3-3-3-3-|-3-3-3-3-3-3-3-3-3-3-3-(3)b5-||
|---------------------------|-----------------------------||


 Verse 2
  Gm                          Gm
  Gtr VI
  W                           +W
  |                            |
  /                            /

  Gtrs II, III
  PM---------------------------------------------------------
  E  S S E S S E S S E  S S    E S S  E  S  S E S S  E S S
|---------------------------|-------------------------------|
|---------------------------|-------------------------------|
|---------------------------|-------------------------------|
|---------------------------|-------------------------------|
|-5--5-5-5-5-5-5-5-5-5--5-5-|--5-5-5--5--5--5-5-5-5--5-5-5/-|
|-3--3-3-3-3-3-3-3-3-3--3-3-|--3-3-3--3--3--3-3-3-3--3-3-3/-|
|
| Gtr IV
| H.                 E  E      Q      E  Q.          Q
|---------------------------|-------------------------------|
|----------------------15---|-15-----15-15----------11------|
|---------------------------|-------------------------------|
|---------------------------|-------------------------------|
|---------------------------|-------------------------------|
|---------------------------|-------------------------------|


  Eb                               Eb
   W                               +W
   |                                |
   /                                /

 -------------------------------------------------------|
   E  S S E  S  S E S S   E  S S    E S S E S S E S S E  E
|--------------------------------|-----------------------------|
|--------------------------------|-----------------------------|
|--------------------------------|-----------------------------|
|--8--8-8-8--8--8-8-8-8---8--8-8-|--8-8-8-8-8-8-8-8-8-8-10\----|
|--6--6-6-6--6--6-6-6-6---6--6-6-|--6-6-6-6-6-6-6-6-6-6--8\----|
|--------------------------------|-----------------------------|
|
|  E  Q      Q.          +Q         W
|--------------------------------|-----------------------------|
|-11-11-----11----------(11)-----|-----------------------------|
|--------------------------------|-----------------------------|
|--------------------------------|-----------------------------|
|--------------------------------|-----------------------------|
|--------------------------------|-----------------------------|


  F                            F
  W                            +W
  |                             |
  /                             /

  PM----------------------------------------------------------
  E  S S E S S E S S  E  S S    E S S  E  S  S E S S  E S S
|----------------------------|-------------------------------|
|----------------------------|-------------------------------|
|----------------------------|-------------------------------|
|----------------------------|-------------------------------|
|-3--3-3-3-3-3-3-3-3--3--3-3-|--3-3-3--3--3--3-3-3-3--3-3-3/-|
|-1--1-1-1-1-1-1-1-1--1--1-1-|--1-1-1--1--1--1-1-1-1--1-1-1/-|
|
| H.                  E  E      Q      E  Q.          Q
|----------------------------|-------------------------------|
|--------------------18-18---|-18-----15-13----------11------|
|----------------------------|-------------------------------|
|----------------------------|-------------------------------|
|----------------------------|-------------------------------|
|----------------------------|-------------------------------|


  Bb            Eb               F
   H            H                 W
   |            |                 |
   /            /                 /

 --------------------------------------------------------|
   E  S S E S S E S S  E  S S     E  S S E  S  S E S S E E
|------------------------------|------------------------------|
|------------------------------|------------------------------|
|------------------------------|------------------------------|
|--3--3-3-3-3-3-3-3-3--3--3-3\-|------------------------------|
|--1--1-1-1-1-1-1-1-1--1--1-1\-|--3--3-3-3--3--3-3-3-3-7-7----|
|------------------------------|--1--1-1-1--1--1-1-1-1-5-5----|
|
|  H.                  E  E       E  Q      Q.         Q
|------------------------------|------------------------------|
|-11------------------18-18----|-18-18-----18-----------------|
|------------------------------|------------------------------|
|------------------------------|------------------------------|
|------------------------------|------------------------------|
|------------------------------|------------------------------|


  Gm                        Gm
  W                         +W
  |                          |
  /                          /

  PM-------------------------------------------------------
  E S S E S S E S S E S S    E  S S E  S  S E S S  E S S
|-------------------------|-------------------------------|
|-------------------------|-------------------------------|
|-------------------------|-------------------------------|
|-------------------------|-------------------------------|
|-5-5-5-5-5-5-5-5-5-5-5-5-|--5--5-5-5--5--5-5-5-5--5-5-5/-|
|-3-3-3-3-3-3-3-3-3-3-3-3-|--3--3-3-3--3--3-3-3-3--3-3-3/-|
|
| W                          E  Q      Q.          Q
|-------------------------|-------------------------------|
|-------------------------|-20-20-----22----------23------|
|-------------------------|-------------------------------|
|-------------------------|-------------------------------|
|-------------------------|-------------------------------|
|-------------------------|-------------------------------|


  Eb                              Eb
   W                              +W
   |                               |
   /                               /

 ------------------------------------------------------|
   E  S S E  S S E S S E   S  S    E S S E S S E S S E  E
|-------------------------------|-----------------------------|
|-------------------------------|-----------------------------|
|-------------------------------|-----------------------------|
|--8--8-8-8--8-8-8-8-8-8---8--8-|--8-8-8-8-8-8-8-8-8-8-10\----|
|--6--6-6-6--6-6-6-6-6-6---6--6-|--6-6-6-6-6-6-6-6-6-6--8\----|
|-------------------------------|-----------------------------|
|
|  E  Q      H            +E       W
|-------------------------------|-----------------------------|
|-23-23-----23-----------(23)---|-----------------------------|
|-------------------------------|-----------------------------|
|-------------------------------|-----------------------------|
|-------------------------------|-----------------------------|
|-------------------------------|-----------------------------|


  F                           F
  W                           +W
  |                            |
  /                            /

  PM---------------------------------------------------------
  E S S E S S E S S  E  S S    E  S S E  S  S E S S  E S S
|---------------------------|-------------------------------|
|---------------------------|-------------------------------|
|---------------------------|-------------------------------|
|---------------------------|-------------------------------|
|-3-3-3-3-3-3-3-3-3--3--3-3-|--3--3-3-3--3--3-3-3-3--3-3-3/-|
|-1-1-1-1-1-1-1-1-1--1--1-1-|--1--1-1-1--1--1-1-1-1--1-1-1/-|
|
| Q     Q     Q      E  E      E  Q      Q.          Q
|---------------------------|-------------------------------|
|-------------------18-18---|-18-18-----20----------22------|
|---------------------------|-------------------------------|
|---------------------------|-------------------------------|
|---------------------------|-------------------------------|
|---------------------------|-------------------------------|


  Bb           Eb                 F
   H             H                 W
   |             |                 |
   /             /                 /

 ----------------------------------------------------------|
   E S S E S S   E   S S  E  E     E S S  E  S  S E S S  E E
|-------------------------------|-----------------------------||
|-------------------------------|-----------------------------||
|-------------------------------|-----------------------------||
|--3-3-3-3-3-3---3---3-3--3--3\-|-----------------------------||
|--1-1-1-1-1-1---1---1-1--1--1\-|--3-3-3--3--3--3-3-3-3--7-7/-||
|-------------------------------|--1-1-1--1--1--1-1-1-1--5-5/-||
|
|  H            +E   E    E  E     Q      E  Q.          Q
|-------------------------------|-----------------------------||
|-23-----------(23)-23---23-25--|-23-----22-20----------22----||
|-------------------------------|-----------------------------||
|-------------------------------|-----------------------------||
|-------------------------------|-----------------------------||
|-------------------------------|-----------------------------||


 Bridge
  Cm/G                                Cm/G
  Gtr VI
   W                                  +W
   |                                   |
   /                                   /

  Gtrs II, III
   PM---------------------------------------------------------------------
   S S S S S S S S  S S S S S S S S    S S S S S S S S  S S S S S S S S
|-----------------------------------|------------------------------------|
|-----------------------------------|------------------------------------|
|-----------------------------------|------------------------------------|
|--5-5-5-5-5-5-5-5--5-5-5-5-5-5-5-5-|--5-5-5-5-5-5-5-5--5-5-5-5-5-5-5-5\-|
|--3-3-3-3-3-3-3-3--3-3-3-3-3-3-3-3-|--3-3-3-3-3-3-3-3--3-3-3-3-3-3-3-3\-|
|-----------------------------------|------------------------------------|
|
| Gtr IV
|  H                H                  H                H
|-----------------------------------|------------------------------------|
|-20---------------22---------------|-23---------------25----------------|
|-----------------------------------|------------------------------------|
|-----------------------------------|------------------------------------|
|-----------------------------------|------------------------------------|
|-----------------------------------|------------------------------------|


  Bb                              Bb
   W                               +W
   |                                |
   /                                /

 ------------------------------------------------------------|
   E  S  S  E  S S  E S S E S S     E  S S E S S E  S S E  S S
|-------------------------------|---------------------------------|
|-------------------------------|---------------------------------|
|-------------------------------|---------------------------------|
|-------------------------------|---------------------------------|
|--5--5--5--5--5-5--5-5-5-5-5-5-|---5--5-5-5-5-5-5--5-5-5--5-5----|
|--3--3--3--3--3-3--3-3-3-3-3-3-|---3--3-3-3-3-3-3--3-3-3--3-3----|
|
|  E.    E.    E    H              +H            Q.        E
|-------------------------------|---------------------------------|
|-27----25----23---20-----------|-(20)--------------------15------|
|-------------------------------|---------------------------------|
|-------------------------------|---------------------------------|
|-------------------------------|---------------------------------|
|-------------------------------|---------------------------------|


  Cm                             Cm
   W                             +W
   |                              |
   /                              /

   E  S  S  E  E  S  S E E S S    E E S S E E S S E E
|------------------------------|----------------------|
|------------------------------|----------------------|
|------------------------------|----------------------|
|--5-----------3---------5-----|----6-------5-----3-5-|
|--3--3--3--3--3--3--3-3-3-3-3-|--3-3-3-3-3-3-3-3-3-3-|
|------------------------------|----------------------|
|
|  E.    E.    E  Q.       E      W
|------------------------------|----------------------|
|-13----13----15-16------------|----------------------|
|------------------------------|----------------------|
|------------------------------|----------------------|
|------------------------------|----------------------|
|------------------------------|----------------------|


  G#                      Dm/Bb           Dm/Bb
   W                      H               +E  Q   E
   |                      |                |
   /                      /                /

   Q      E  E  E E E E   S S S S S S S S  E.   Q   S
|-----------------------|------------------------------||
|-----------------------|------------------------------||
|-----------------------|------------------------------||
|-----------------------|------------------------------||
|--6------6--6--6-6-6-6-|-8-8-8-8-8-8-8-8--8-----------||
|--4------4--4--4-4-4-4-|-6-6-6-6-6-6-6-6--6-----------||
|
|  E.  E.    E  H         W
|-----------------------|------------------------------||
|-16--16----15-13-------|------------------------------||
|-----------------------|------------------------------||
|-----------------------|------------------------------||
|-----------------------|------------------------------||
|-----------------------|------------------------------||


 Chorus
  CmXV               Fm
  Gtr VI
  W                    W
  |                    |
  /                    /

  Gtrs II, III
  W                    W
|------------------|---------------------|
|------------------|---------------------|
|------------------|---------------------|
|-5----------------|---------------------|
|-3----------------|---3-----------------|
|------------------|---1-----------------|
|
| Gtr IV
| Q   Q   Q   E  E    +Q    Q   Q   E  E
|------------------|---------------------|
|----16--18--20-21-|-(21)--20--18--20-18-|
|------------------|---------------------|
|------------------|---------------------|
|------------------|---------------------|
|------------------|---------------------|


  BbXV                  Cm/Ab     Dm/Bb
    W                     H        H
    |                     |        |
    /                     /        /

    W                     H        H
|---------------------|----------------------|
|---------------------|----------------------|
|---------------------|----------------------|
|---3-----------------|----------------------|
|---1-----------------|---6--------8---------|
|---------------------|---4--------6---------|
|
|  +Q    Q   Q   E  E    +Q    Q   Q   E  E
|---------------------|----------------------|
|-(18)--15--16--18-20-|-(20)--18--16--15-16--|
|---------------------|----------------------|
|---------------------|----------------------|
|---------------------|----------------------|
|---------------------|----------------------|


  Eb6/G                 G#                    Dm/Bb          Dm/Bb  G# Dm/Bb
    W                     W                     W            +H     Q  Q
    |                     |                     |             |     |  |
    /                     /                     /             /     /  /

    W                     W                     W            +H     Q  Q
|---------------------|---------------------|--------------|---------------|
|---------------------|---------------------|--------------|---------------|
|---------------------|---------------------|--------------|---------------|
|---5-----------------|---------------------|--------------|---------------|
|---3-----------------|---6-----------------|---8----------|-(8)----6--8---|
|---------------------|---4-----------------|---6----------|-(6)----4--6---|
|
|  +Q    Q   E  Q   E    +Q    Q   E  Q   E    +H.      Q     W
|---------------------|---------------------|--------------|---------------|
|-(16)--16--18-20--21-|-(21)--20--18-20--18-|-(18)---------|---------------|
|---------------------|---------------------|--------------|---------------|
|---------------------|---------------------|--------------|---------------|
|---------------------|---------------------|--------------|---------------|
|---------------------|---------------------|--------------|---------------|


  CmXV               Fm
  W                    W
  |                    |
  /                    /

  W                    W
|------------------|---------------------|
|------------------|---------------------|
|------------------|---------------------|
|-5----------------|---------------------|
|-3----------------|---3-----------------|
|------------------|---1-----------------|
|
| Q   Q   Q   E  E    +Q    Q   Q   E  E
|------------------|---------------------|
|----16--18--20-21-|-(21)--20--18--20-18-|
|------------------|---------------------|
|------------------|---------------------|
|------------------|---------------------|
|------------------|---------------------|


  BbXV                  Cm/Ab     Dm/Bb
    W                     H        H
    |                     |        |
    /                     /        /

    W                     H        H
|---------------------|----------------------|
|---------------------|----------------------|
|---------------------|----------------------|
|---3-----------------|----------------------|
|---1-----------------|---6--------8---------|
|---------------------|---4--------6---------|
|
|  +Q    Q   Q   E  E    +Q    Q   Q   E  E
|---------------------|----------------------|
|-(18)--15--16--18-20-|-(20)--18--16--15-16--|
|---------------------|----------------------|
|---------------------|----------------------|
|---------------------|----------------------|
|---------------------|----------------------|


  Eb6/G                 G#
    W                     W
    |                     |
    /                     /

    W                     W
|---------------------|---------------------|
|---------------------|---------------------|
|---------------------|---------------------|
|---5-----------------|---------------------|
|---3-----------------|---6-----------------|
|---------------------|---4-----------------|
|
|  +Q    Q   E  Q   E    +Q    Q   E  Q   E
|---------------------|---------------------|
|-(16)--16--18-20--21-|-(21)--20--18-20--18-|
|---------------------|---------------------|
|---------------------|---------------------|
|---------------------|---------------------|
|---------------------|---------------------|


  Dm/Bb          Dm/Bb
    W            +E  H      Q  E
    |             |
    /             /

    W             E.   H.        S
|--------------|-------------------||
|--------------|-------------------||
|--------------|-------------------||
|--------------|-------------------||
|---8----------|-\8----------------||
|---6----------|-\6----------------||
|
|  +H.      Q     W
|--------------|-------------------||
|-(18)---------|-------------------||
|--------------|-------------------||
|--------------|-------------------||
|--------------|-------------------||
|--------------|-------------------||


   Melody
    Cm/G                               Cm/G
    Gtr VI
     W                                 +W
     |                                  |
     /                                  /

    Gtr I
     Q.          E  E    E    E  E      Q       Q        Q      Q
||------------------------------13---|--------------------------------|
||o-13----------15-16---15---16------|-16------15-------13-----11-----|
||-----------------------------------|--------------------------------|
||-----------------------------------|--------------------------------|
||o----------------------------------|--------------------------------|
||-----------------------------------|--------------------------------|
|
|   Gtrs II, III
|       PM----|     PM-----|     PM-------|     PM----|    PM|    PM|
|    E  S S S S  E  S S  S S  E  S S    S S  E  S S S S  E S S  E S S
||-----------------------------------|--------------------------------|
||o----------------------------------|--------------------------------|
||-----------------------------------|--------------------------------|
||-----------------------------------|--------------------------------|
||o-10-----------8-----------10------|------10-----------8-----10-----|
||---8--8-8-8-8--8--8-8--8-8--8--8-8-|--8-8--8--8-8-8-8--8-8-8--8-8-8-|


  G#                                 G#
   W                                 +W
   |                                  |
   /                                  /

   Q.          E  E    E    E  E      Q      Q        Q      Q
|-----------------------------13---|--------------------------------|
|-13----------15-16---15---16------|-16-----15-------13-----15------|
|----------------------------------|--------------------------------|
|----------------------------------|--------------------------------|
|----------------------------------|--------------------------------|
|----------------------------------|--------------------------------|
|
|     PM----|     PM-----|     PM-------|    PM----|    PM|    PM|
|  E  S S S S  E  S S  S S  E  S S    S S E  S S S S  E S S  E S S
|----------------------------------|--------------------------------|
|----------------------------------|--------------------------------|
|--8-----------8------------7------|------8-----------7------8------|
|--6--6-6-6-6--6--6-6--6-6--6--6-6-|--6-6-6--6-6-6-6--6-6-6--6-6-6--|
|----------------------------------|--------------------------------|
|----------------------------------|--------------------------------|


  F6sus4                             F6sus4
   W                                 +W
   |                                  |
   /                                  /

   Q.          E  E    E    E  E      Q      Q        Q      Q
|----------------------------------|-------------------------------|
|-------------13-15---11---13-15---|-16-----15-------13-----11-----|
|-15-------------------------------|-------------------------------|
|----------------------------------|-------------------------------|
|----------------------------------|-------------------------------|
|----------------------------------|-------------------------------|
|
|     PM----|     PM-----|     PM-------|    PM----|    PM|    PM|
|  E  S S S S  E  S S  S S  E  S S    S S E  S S S S  E S S  E S S
|----------------------------------|-------------------------------|
|--3-----------4------------3------|------3-----------4------3-----|
|--3--3-3-3-3--3--3-3--3-3--3--3-3-|--3-3-3--3-3-3-3--3-3-3--3-3-3-|
|----------------------------------|-------------------------------|
|----------------------------------|-------------------------------|
|----------------------------------|-------------------------------|


  Eb/G         G#XVIII          F6sus4
   H            H                W
   |            |                |
   /            /                /

   H            H                H            Q        Q
|-15-----------16-------------|-13-------------------------------||
|-----------------------------|--------------16-------15--------o||
|-----------------------------|----------------------------------||
|-----------------------------|----------------------------------||
|-----------------------------|---------------------------------o||
|-----------------------------|----------------------------------||
|
|    PM----|    PM----|   PM|      PM----|    PM----|    PM|
|  E S S S S E  S S S S E S S    E S S S S E  S S S S  E S S
|-----------------------------|----------------------------------||
|--4---------4----------4-----|---------------------------------o||
|--3---------3----------3-----|--3---------3-----------3---------||
|----1-1-1-1----1-1-1-1---1-1-|--3---------3-----------3---------||
|-----------------------------|----1-1-1-1----1-1-1-1----1-1----o||
|-----------------------------|----------------------------------||


 Solo ( Jens Ludwig )
  Eb6/G
  Gtr VI
  W
  |
  /

  Gtr II
  W
|-----------------------------------------------------------------|
|-----------------------------------------------------------------|
|-5---------------------------------------------------------------|
|-5---------------------------------------------------------------|
|-3---------------------------------------------------------------|
|-----------------------------------------------------------------|
|
| Gtr III
|       T       T       T       T       T       T       T       T
| |------6------| |------6------| |------6------| |------6------|
| S  S  S S  S  S S  S  S S  S  S S  S  S S  S  S S  S  S S  S  S
|-8h11h15-8h11h15-8h11h15-8h11h15-8h11h15-8h11h15-8h11h15-8h11h15-|
|-----------------------------------------------------------------|
|-----------------------------------------------------------------|
|-----------------------------------------------------------------|
|-----------------------------------------------------------------|
|-----------------------------------------------------------------|


  Eb6/G
  +W
   |
   /

  +W
|------------------------------------------------------------------|
|------------------------------------------------------------------|
|-(5)--------------------------------------------------------------|
|-(5)--------------------------------------------------------------|
|-(3)--------------------------------------------------------------|
|------------------------------------------------------------------|
|
|        T       T       T       T       T       T       T       T
|  |------6------| |------6------| |------6------| |------6------|
|  S  S  S S  S  S S  S  S S  S  S S  S  S S  S  S S  S  S S  S  S
|--6h11h15-6h11h15-6h11h15-6h11h15-8h11h15-8h11h15-8h11h15-8h11h15-|
|------------------------------------------------------------------|
|------------------------------------------------------------------|
|------------------------------------------------------------------|
|------------------------------------------------------------------|
|------------------------------------------------------------------|


  G#XVIII
  W
  |
  /

  W
|-----------------------------------------------------------------|
|-----------------------------------------------------------------|
|-----------------------------------------------------------------|
|-6---------------------------------------------------------------|
|-6---------------------------------------------------------------|
|-4---------------------------------------------------------------|
|
|       T       T       T       T       T       T       T       T
| |------6------| |------6------| |------6------| |------6------|
| S  S  S S  S  S S  S  S S  S  S S  S  S S  S  S S  S  S S  S  S
|-8h11h16-8h11h16-8h11h16-8h11h16-8h11h16-8h11h16-8h11h16-8h11h16-|
|-----------------------------------------------------------------|
|-----------------------------------------------------------------|
|-----------------------------------------------------------------|
|-----------------------------------------------------------------|
|-----------------------------------------------------------------|


  G#XVIII
  +W
   |
   /

  +W
|---------------------------------------------------------------------|
|---------------------------------------------------------------------|
|---------------------------------------------------------------------|
|-(6)-----------------------------------------------------------------|
|-(6)-----------------------------------------------------------------|
|-(4)-----------------------------------------------------------------|
|
|        T        T        T        T       T       T       T       T
|  |------6-------|  |------6-------| |------6------| |------6------|
|  S  S  S  S  S  S  S  S  S  S  S  S S  S  S S  S  S S  S  S S  S  S
|-10h11h16-10h11h16-10h11h16-10h11h16-8h11h16-8h11h16-8h11h16-8h11h16-|
|---------------------------------------------------------------------|
|---------------------------------------------------------------------|
|---------------------------------------------------------------------|
|---------------------------------------------------------------------|
|---------------------------------------------------------------------|


  F6sus4
   W
   |
   /

   W
|-------------------------------------------------------------------------|
|-------------------------------------------------------------------------|
|-------------------------------------------------------------------------|
|--8----------------------------------------------------------------------|
|--8----------------------------------------------------------------------|
|--6----------------------------------------------------------------------|
|
|        T        T        T        T        T        T        T        T
|  |------6-------|  |------6-------|  |------6-------|  |------6-------|
|  S  S  S  S  S  S  S  S  S  S  S  S  S  S  S  S  S  S  S  S  S  S  S  S
|-10h13h18-10h13h18-10h13h18-10h13h18-10h13h18-10h13h18-10h13h18-10h13h18-|
|-------------------------------------------------------------------------|
|-------------------------------------------------------------------------|
|-------------------------------------------------------------------------|
|-------------------------------------------------------------------------|
|-------------------------------------------------------------------------|


  F6sus4
  +W
   |
   /

  +W
|-------------------------------------------------------------------------|
|-------------------------------------------------------------------------|
|-------------------------------------------------------------------------|
|-(8)---------------------------------------------------------------------|
|-(8)---------------------------------------------------------------------|
|-(6)---------------------------------------------------------------------|
|
|        T        T        T        T        T        T        T        T
|  |------6-------|  |------6-------|  |------6-------|  |------6-------|
|  S  S  S  S  S  S  S  S  S  S  S  S  S  S  S  S  S  S  S  S  S  S  S  S
|-11h13h18-11h13h18-11h13h18-11h13h18-10h13h18-10h13h18-10h13h18-10h13h18-|
|-------------------------------------------------------------------------|
|-------------------------------------------------------------------------|
|-------------------------------------------------------------------------|
|-------------------------------------------------------------------------|
|-------------------------------------------------------------------------|


  Eb/G       G#               F6sus4         Eb6/G
   Q     +Q   Q       +Q       W              W
   |      |   |        |       |              |
   /      /   /        /       /              /

   W                           W              W
|---------------------------|--------------|----------------------|
|---------------------------|--------------|----------------------|
|--8------------------------|--------------|--5-------------------|
|--8------------------------|--8-----------|--5-------------------|
|--6------------------------|--8-----------|--3-------------------|
|---------------------------|--6-----------|----------------------|
|
|  H          E     Q     E    W              E  E  E  Q.    E  E
|---------------------------|--------------|----------------------|
|-18b20------18b20-21----20-|-16b18--------|-15s16-15-------15s16-|
|---------------------------|--------------|----------12----------|
|---------------------------|--------------|----------------------|
|---------------------------|--------------|----------------------|
|---------------------------|--------------|----------------------|


  Eb6/G                   G#XI
  +W                       W
   |                       |
   /                       /

  +W                       W
|-----------------------|--------------------|
|-----------------------|--------------------|
|-(5)-------------------|--------------------|
|-(5)-------------------|--6-----------------|
|-(3)-------------------|--6-----------------|
|-----------------------|--4-----------------|
|
|                                    ~~~~~
|  E   Q.    E  E  E  E    Q   +Q    H
|-----------------------|--------------------|
|-16/-------15s16-15----|--------------------|
|-----12-------------15-|-15--(15)--15b17----|
|-----------------------|--------------------|
|-----------------------|--------------------|
|-----------------------|--------------------|


  G#XI              F6sus4
  +W                 W
   |                 |
   /                 /

   W                 W
|-----------------|----------------------|
|-----------------|----------------------|
|-----------------|----------------------|
|--6--------------|--8-------------------|
|--6--------------|--8-------------------|
|--4--------------|--6-------------------|
|
|  Q   Q   +H        E  E  E  Q.    E  E
|-----------------|----------------------|
|-----------------|-15s16-15-------15s16-|
|-15--15--(15)----|----------10----------|
|-----------------|----------------------|
|-----------------|----------------------|
|-----------------|----------------------|


  F6sus4                  Eb/G   Eb/GG#    G#            F6sus4
  +W                       Q     +Q    Q   +Q             W
   |                       |      |    |    |             |
   /                       /      /    /    /             /

  +W                       W                              W
|-----------------------|------------------------------|-------||
|-----------------------|------------------------------|-------||
|-----------------------|--8---------------------------|-------||
|-(8)-------------------|--6---------------------------|--8----||
|-(8)-------------------|--6---------------------------|--8----||
|-(6)-------------------|------------------------------|--6----||
|
|                                                         ~~
|  E   Q.    E  E  E  E    H          +Q.      S  S       W
|-----------------------|------------------------------|-------||
|-15--------15-16-16-18-|-18b20------(18)-----16s15b17-|-15----||
|-----10----------------|------------------------------|-------||
|-----------------------|------------------------------|-------||
|-----------------------|------------------------------|-------||
|-----------------------|------------------------------|-------||


 Bridge
  Cm/G                                Cm/G
  Gtr VI
   W                                  +W
   |                                   |
   /                                   /

  Gtrs II, III
   PM---------------------------------------------------------------------
   S S S S S S S S  S S S S S S S S    S S S S S S S S  S S S S S S S S
|-----------------------------------|------------------------------------|
|-----------------------------------|------------------------------------|
|-----------------------------------|------------------------------------|
|--5-5-5-5-5-5-5-5--5-5-5-5-5-5-5-5-|--5-5-5-5-5-5-5-5--5-5-5-5-5-5-5-5\-|
|--3-3-3-3-3-3-3-3--3-3-3-3-3-3-3-3-|--3-3-3-3-3-3-3-3--3-3-3-3-3-3-3-3\-|
|-----------------------------------|------------------------------------|
|
| Gtr IV
|  H                H                  H                H
|-----------------------------------|------------------------------------|
|-13---------------15---------------|-16---------------18----------------|
|-----------------------------------|------------------------------------|
|-----------------------------------|------------------------------------|
|-----------------------------------|------------------------------------|
|-----------------------------------|------------------------------------|


  Bb                              Bb
   W                               +W
   |                                |
   /                                /

 ------------------------------------------------------------|
   E  S  S  E  S S  E S S E S S     E  S S E S S E  S S E  S S
|-------------------------------|---------------------------------|
|-------------------------------|---------------------------------|
|-------------------------------|---------------------------------|
|-------------------------------|---------------------------------|
|--5--5--5--5--5-5--5-5-5-5-5-5-|---5--5-5-5-5-5-5--5-5-5--5-5----|
|--3--3--3--3--3-3--3-3-3-3-3-3-|---3--3-3-3-3-3-3--3-3-3--3-3----|
|
|  E.    E.    E    H              +H            Q.        E
|-------------------------------|---------------------------------|
|-15----13----11---15-----------|-(15)----------------------------|
|-------------------------------|-------------------------15------|
|-------------------------------|---------------------------------|
|-------------------------------|---------------------------------|
|-------------------------------|---------------------------------|


  Cm                            Cm
   W                             +W
   |                              |
   /                              /

   E  S  S  E  E  S S E E S S     E  E S S E E S  S E E
|-----------------------------|-------------------------|
|-----------------------------|-------------------------|
|-----------------------------|-------------------------|
|--5-----------3--------5-----|------6-------5------3-5-|
|--3--3--3--3--3--3-3-3-3-3-3-|---3--3-3-3-3-3-3--3-3-3-|
|-----------------------------|-------------------------|
|
|  E.    E.    E  H              +E  H         Q.
|-----------------------------|-------------------------|
|-----------------------------|-------------------------|
|-15----15----13-12-----------|-(12)--------------------|
|-----------------------------|-------------------------|
|-----------------------------|-------------------------|
|-----------------------------|-------------------------|


  G#                    Dm/Bb            Dm/Bb
   W                     H               +E  Q   E
   |                     |                |
   /                     /                /

   Q    E  E  E E E E    S S S S S S S S  E.   Q   S
|---------------------|-------------------------------||
|---------------------|-------------------------------||
|---------------------|-------------------------------||
|---------------------|-------------------------------||
|--6----6--6--6-6-6-6-|--8-8-8-8-8-8-8-8--8-----------||
|--4----4--4--4-4-4-4-|--6-6-6-6-6-6-6-6--6-----------||
|
|  E  Q    E  H          H                H
|---------------------|-------------------------------||
|-16-16---16-16-------|-15----------------------------||
|---------------------|-------------------------------||
|---------------------|-------------------------------||
|---------------------|-------------------------------||
|---------------------|-------------------------------||


   Chorus
    CmXV               Fm
    Gtr VI
    W                    W
    |                    |
    /                    /

    Gtrs II, III
    W                    W
||-------------------|---------------------|
||o------------------|---------------------|
||-------------------|---------------------|
||--5----------------|---------------------|
||o-3----------------|---3-----------------|
||-------------------|---1-----------------|
|
|   Gtr IV
|   Q   Q   Q   E  E    +Q    Q   Q   E  E
||-------------------|---------------------|
||o----16--18--20-21-|-(21)--20--18--20-18-|
||-------------------|---------------------|
||-------------------|---------------------|
||o------------------|---------------------|
||-------------------|---------------------|


  BbXV                  Cm/Ab     Dm/Bb
    W                     H        H
    |                     |        |
    /                     /        /

    W                     H        H
|---------------------|---------------------|
|---------------------|---------------------|
|---------------------|---------------------|
|---3-----------------|---------------------|
|---1-----------------|---6--------8--------|
|---------------------|---4--------6--------|
|
|  +Q    Q   Q   E  E    +Q    Q   Q   E  E
|---------------------|---------------------|
|-(18)--15--16--18-20-|-(20)--18--16--15-16-|
|---------------------|---------------------|
|---------------------|---------------------|
|---------------------|---------------------|
|---------------------|---------------------|


  Eb6/G                 G#                    Dm/Bb          Dm/Bb  G# Dm/Bb
    W                     W                     W            +H     Q  Q
    |                     |                     |             |     |  |
    /                     /                     /             /     /  /

    W                     W                     W            +H     Q  Q    4x
|---------------------|---------------------|--------------|----------------||
|---------------------|---------------------|--------------|---------------o||
|---------------------|---------------------|--------------|----------------||
|---5-----------------|---------------------|--------------|----------------||
|---3-----------------|---6-----------------|---8----------|-(8)----6--8---o||
|---------------------|---4-----------------|---6----------|-(6)----4--6----||
|
|  +Q    Q   E  Q   E    +Q    Q   E  Q   E    +H.      Q     W             4x
|---------------------|---------------------|--------------|----------------||
|-(16)--16--18-20--21-|-(21)--20--18-20--18-|-(18)---------|---------------o||
|---------------------|---------------------|--------------|----------------||
|---------------------|---------------------|--------------|----------------||
|---------------------|---------------------|--------------|---------------o||
|---------------------|---------------------|--------------|----------------||


 Outro (Song Only)
  CmXV               Fm
  Gtr VI
  W                    W
  |                    |
  /                    /

  Gtr IV
  Q   Q   Q   E  E    +Q    Q   Q   E  E
|------------------|---------------------|
|----16--18--20-21-|-(21)--20--18--20-18-|
|------------------|---------------------|
|------------------|---------------------|
|------------------|---------------------|
|------------------|---------------------|
|
| Gtr V
| Q   Q   Q   E  E    +Q    Q   Q   E  E
|------------------|---------------------|
|------------------|---------------------|
|-----8--10--12-13-|-(13)--12--10--12-10-|
|------------------|---------------------|
|------------------|---------------------|
|------------------|---------------------|
|
| Gtrs II, III
|                      >
| W                    W
|------------------|---------------------|
|------------------|---------------------|
|------------------|---------------------|
|-5----------------|---------------------|
|-3----------------|---3-----------------|
|------------------|---1-----------------|


  BbXV                  Cm/Ab     Dm/Bb
    W                     H        H
    |                     |        |
    /                     /        /

   +Q    Q   Q   E  E    +Q    Q   Q   E  E
|---------------------|----------------------|
|-(18)--15--16--18-20-|-(20)--18--16--15-16--|
|---------------------|----------------------|
|---------------------|----------------------|
|---------------------|----------------------|
|---------------------|----------------------|
|
|  +Q    Q   Q   E  E    +Q    Q   Q   E  E
|---------------------|----------------------|
|---------------------|----------------------|
|-(10)---7---8--10-12-|-(12)--10---8---7--8--|
|---------------------|----------------------|
|---------------------|----------------------|
|---------------------|----------------------|
|
|   W                     H        H
|---------------------|----------------------|
|---------------------|----------------------|
|---------------------|----------------------|
|---3-----------------|----------------------|
|---1-----------------|---6--------8---------|
|---------------------|---4--------6---------|


  Eb6/G                 G#                    Dm/Bb          Dm/Bb G# Dm/Bb
    W                     W                     W            +H    Q  Q
    |                     |                     |             |    |  |
    /                     /                     /             /    /  /

   +Q    Q   E  Q   E    +Q    Q   E  Q   E    +H.      Q     W
|---------------------|---------------------|--------------|--------------|
|-(16)--16--18-20--21-|-(21)--20--18-20--18-|-(18)---------|--------------|
|---------------------|---------------------|--------------|--------------|
|---------------------|---------------------|--------------|--------------|
|---------------------|---------------------|--------------|--------------|
|---------------------|---------------------|--------------|--------------|
|
|  +Q    Q   E  Q   E    +Q    Q   E  Q   E    +H.      Q     W
|---------------------|---------------------|--------------|--------------|
|---------------------|---------------------|--------------|--------------|
|--(8)---8--10-12--13-|-(13)--12--10-12--10-|-(10)---------|--------------|
|---------------------|---------------------|--------------|--------------|
|---------------------|---------------------|--------------|--------------|
|---------------------|---------------------|--------------|--------------|


  CmXV               Fm
  W                    W
  |                    |
  /                    /

  Q   Q   Q   E  E    +Q    Q   Q   E  E
|------------------|---------------------|
|----16--18--20-21-|-(21)--20--18--20-18-|
|------------------|---------------------|
|------------------|---------------------|
|------------------|---------------------|
|------------------|---------------------|
|
| Q   Q   Q   E  E    +Q    Q   Q   E  E
|------------------|---------------------|
|------------------|---------------------|
|-----8--10--12-13-|-(13)--12--10--12-10-|
|------------------|---------------------|
|------------------|---------------------|
|------------------|---------------------|


  BbXV                  Cm/Ab     Dm/Bb
    W                     H        H
    |                     |        |
    /                     /        /

   +Q    Q   Q   E  E    +Q    Q   Q   E  E
|---------------------|----------------------|
|-(18)--15--16--18-20-|-(20)--18--16--15-16--|
|---------------------|----------------------|
|---------------------|----------------------|
|---------------------|----------------------|
|---------------------|----------------------|
|
|  +Q    Q   Q   E  E    +Q    Q   Q   E  E
|---------------------|----------------------|
|---------------------|----------------------|
|-(10)---7---8--10-12-|-(12)--10---8---7--8--|
|---------------------|----------------------|
|---------------------|----------------------|
|---------------------|----------------------|


  Eb6/G                 G#
    W                     W
    |                     |
    /                     /

   +Q    Q   E  Q   E    +Q    Q   E  Q   E
|---------------------|---------------------|
|-(16)--16--18-20--21-|-(21)--20--18-20--18-|
|---------------------|---------------------|
|---------------------|---------------------|
|---------------------|---------------------|
|---------------------|---------------------|
|
|  +Q    Q   E  Q   E    +Q    Q   E  Q   E
|---------------------|---------------------|
|---------------------|---------------------|
|--(8)---8--10-12--13-|-(13)--12--10-12--10-|
|---------------------|---------------------|
|---------------------|---------------------|
|---------------------|---------------------|


  Dm/Bb          Dm/Bb
    W            +E H    Q  E   W
    |             |
    /             /

   +H.      Q     W             W
|--------------|--------------|------*|
|-(18)---------|--------------|------*|
|--------------|--------------|------*|
|--------------|--------------|------*|
|--------------|--------------|------*|
|--------------|--------------|------*|
|
|  +H.      Q     W             W
|--------------|--------------|------*|
|--------------|--------------|------*|
|-(10)---------|--------------|------*|
|--------------|--------------|------*|
|--------------|--------------|------*|
|--------------|--------------|------*|




--------------------------------------------------------------------------------


Duration Legend
---------------
W - whole; H - half; Q - quarter; E - 8th; S - 16th; T - 32nd; X - 64th; a - acciaccatura
+ - note tied to previous; . - note dotted; .. - note double dotted
Uncapitalized letters represent notes that are staccato (1/2 duration)
Irregular groupings are notated above the duration line
Duration letters will always appear directly above the note/fret number it represents the
duration for.  Duration letters with no fret number below them represent rests.  Multi-
bar rests are notated in the form Wxn, where n is the number of bars to rest for.  Low
melody durations appear below the staff

Tablature Legend
----------------
 h   - hammer-on
 p   - pull-off
 b   - bend
 pb  - pre-bend
 r   - bend release (if no number after the r, then release immediately)
 /\  - slide into or out of (from/to "nowhere")
 s   - legato slide
 S   - shift slide
<n> - natural harmonic
[n]  - artificial harmonic
n(n) - tapped harmonic
 ~   - vibrato
 tr  - trill
 T   - tap
 TP  - trem. picking
 PM  - palm muting
\n/  - tremolo bar dip; n = amount to dip
 \n  - tremolo bar down
 n/  - tremolo bar up
/n\  - tremolo bar inverted dip
 =   - hold bend; also acts as connecting device for hammers/pulls
 <> - volume swell (louder/softer)
 x   - on rhythm slash represents muted slash
 o   - on rhythm slash represents single note slash

Misc Legend
-----------
 |  - bar
||  - double bar
||o - repeat start
o|| - repeat end
*|  - double bar (ending)
 :  - bar (freetime)
 $  - Segno
 &  - Coda
Tempo markers - <E/E./Q/Q./H/H.> = BPM(8/16=s8/s16), where s8 = swing 8ths, s16 = swing 16ths

comments
We did not receive enough feedback on this tab! Please rate:
print report bad tab
1 2 3 4 5
I want to post or [tab]
guest
You may want to rate the tab now too:
select rating
Please do not post tabs as comments. Select "correction" instead!