Oops, an error
Loading. Please wait.

King Tab

ver1
ver1

Whole song

Interactive

More versions @911Tabs.com
252 views 1 this week
no commentswrite comment
1 2 3 4 5
please rate
Autoscroll
+/-
esc
set tempo
stop
Contributor
Difficulty
intermediate
Hey! There's an official Ultimate Guitar app which is ideal
for learning songs when you're away from computer. Get the app
WARNING: You are trying to view
                                    content from Ultimate-Guitar.com
                                    in an unauthorized application,
                                    which is prohibited.

                                    Please use an official Ultimate
                                    Guitar Tabs application for iPhone,
                                    iPad or Android to access legitimate
                                    chords, guitar, bass, and drum tabs
                                    from Ultimate-Guitar.com database.

                                    Type "ultimate guitar tabs" in Apple
                                    App Store's or Android Market's
                                    search to find the application.
King - Edu Falaschi(www.edufalaschi.com.br)Vocal from Angra and Almah
Solo project Almah (www.almah.com.br)
      PM PM    PM    PM PM PM       PM    PM PM PM PM PM  
      E  E  E  E  E  E  E  E     E  E  E  E  E  E  E  E   
D#||--------------------------|--------------------------|
A#||--------------------------|--------------------------|
F#||--------------------------|--------------------------|
C#||--------------------------|--------------------------|
G#||--------5-----4-----------|--5-----4-----------------|
C#||--2--2-----2-----2--2--2--|-----2-----2--0--2--2--0--|


  PM PM    PM    PM PM PM       PM    PM               
  E  E  E  E  E  E  E  E     E  E  E  E  E  E    Q     
--------------------------|---------------------------|
--------------------------|---------------------------|
--------------------------|---------------------------|
--------------------------|---------------------------|
--------5-----4-----------|--5-----4-----------<>5----|
--2--2-----2-----2--2--2--|-----2-----2--0--2---------|


  PM PM    PM    PM PM PM       PM    PM PM PM PM PM  
  E  E  E  E  E  E  E  E     E  E  E  E  E  E  E  E   
--------------------------|--------------------------|
--------------------------|--------------------------|
--------------------------|--------------------------|
--------------------------|--------------------------|
--------5-----4-----------|--5-----4-----------------|
--2--2-----2-----2--2--2--|-----2-----2--0--2--2--0--|


  PM PM    PM    PM PM PM       PM    PM               
  E  E  E  E  E  E  E  E     E  E  E  E  E  E    Q     
--------------------------|---------------------------|
--------------------------|---------------------------|
--------------------------|---------------------------|
--------------------------|---------------------------|
--------5-----4-----------|--5-----4-----------<>5----|
--2--2-----2-----2--2--2--|-----2-----2--0--2---------|


  PM PM    PM    PM PM PM       PM    PM PM PM PM PM  
  E  E  E  E  E  E  E  E     E  E  E  E  E  E  E  E   
--------------------------|--------------------------|
--------------------------|--------------------------|
--------------------------|--------------------------|
--------------------------|--------------------------|
--------5-----4-----------|--5-----4-----------------|
--2--2-----2-----2--2--2--|-----2-----2--0--2--2--0--|


  PM PM    PM    PM PM PM       PM    PM               
  E  E  E  E  E  E  E  E     E  E  E  E  E  E    Q     
--------------------------|---------------------------|
--------------------------|---------------------------|
--------------------------|---------------------------|
--------------------------|---------------------------|
--------5-----4-----------|--5-----4-----------<>5----|
--2--2-----2-----2--2--2--|-----2-----2--0--2---------|


  PM PM    PM    PM PM PM       PM    PM PM PM PM PM  
  E  E  E  E  E  E  E  E     E  E  E  E  E  E  E  E   
--------------------------|--------------------------|
--------------------------|--------------------------|
--------------------------|--------------------------|
--------------------------|--------------------------|
--------5-----4-----------|--5-----4-----------------|
--2--2-----2-----2--2--2--|-----2-----2--0--2--2--0--|


  PM PM    PM    PM PM PM       PM    PM                                        
  E  E  E  E  E  E  E  E     E  E  E  E  E  E    Q       Q    E  E  E  E  Q     
--------------------------|---------------------------|------------------------|
--------------------------|---------------------------|------------------------|
--------------------------|---------------------------|------------------------|
--------------------------|---------------------------|--0----L--0--L--0--0----|
--------5-----4-----------|--5-----4-----------<>5----|--0----L--0--L--0--0----|
--2--2-----2-----2--2--2--|-----2-----2--0--2---------|--0----L--0--L--0--0----|


  E  E  E   E  E    E   Q       Q    E  E  E  E  Q     
-----------------------------|------------------------|
-----------------------------|------------------------|
-----7--7s--9--9s--11--11----|------------------------|
--L--------------------------|--0----L--0--L--0--0----|
--L--5--5s--7--7s---9---9----|--0----L--0--L--0--0----|
--L--------------------------|--0----L--0--L--0--0----|


          PM PM                PM PM    PM    PM PM PM  
  E   S S E  E  E  E  E  E     E  E  E  E  E  E  E  E   
----------------------------|--------------------------|
----------------------------|--------------------------|
--7s--5---------7-----5-----|--------------------------|
----------------------------|--------------------------|
--5s--3---------5-----3-----|--------5-----4-----------|
----------0--0--------------|--2--2-----2-----2--2--2--|


     PM    PM PM PM PM PM    PM PM    PM    PM PM PM  
  E  E  E  E  E  E  E  E     E  E  E  E  E  E  E  E   
--------------------------|--------------------------|
--------------------------|--------------------------|
--------------------------|--------------------------|
--------------------------|--------------------------|
--5-----4-----------------|--------5-----4-----------|
-----2-----2--0--2--2--0--|--2--2-----2-----2--2--2--|


     PM    PM                 PM PM    PM    PM PM PM  
  E  E  E  E  E  E    Q       E  E  E  E  E  E  E  E   
---------------------------|--------------------------|
---------------------------|--------------------------|
---------------------------|--------------------------|
---------------------------|--------------------------|
--5-----4-----------<>5----|--------5-----4-----------|
-----2-----2--0--2---------|--2--2-----2-----2--2--2--|


     PM    PM PM PM PM PM    PM PM    PM    PM PM PM  
  E  E  E  E  E  E  E  E     E  E  E  E  E  E  E  E   
--------------------------|--------------------------|
--------------------------|--------------------------|
--------------------------|--------------------------|
--------------------------|--------------------------|
--5-----4-----------------|--------5-----4-----------|
-----2-----2--0--2--2--0--|--2--2-----2-----2--2--2--|


     PM    PM                 PM PM    PM    PM PM PM  
  E  E  E  E  E  E    Q       E  E  E  E  E  E  E  E   
---------------------------|--------------------------|
---------------------------|--------------------------|
---------------------------|--------------------------|
---------------------------|--------------------------|
--5-----4-----------<>5----|--------5-----4-----------|
-----2-----2--0--2---------|--2--2-----2-----2--2--2--|


     PM    PM PM PM PM PM    PM PM    PM    PM PM PM  
  E  E  E  E  E  E  E  E     E  E  E  E  E  E  E  E   
--------------------------|--------------------------|
--------------------------|--------------------------|
--------------------------|--------------------------|
--------------------------|--------------------------|
--5-----4-----------------|--------5-----4-----------|
-----2-----2--0--2--2--0--|--2--2-----2-----2--2--2--|


     PM    PM                                        
  E  E  E  E  E  E    Q       Q    E  E  E  E  Q     
---------------------------|------------------------|
---------------------------|------------------------|
---------------------------|------------------------|
---------------------------|--0----L--0--L--0--0----|
--5-----4-----------<>5----|--0----L--0--L--0--0----|
-----2-----2--0--2---------|--0----L--0--L--0--0----|


  E  E  E   E  E    E   Q       Q    E  E  E  E  Q     
-----------------------------|------------------------|
-----------------------------|------------------------|
-----7--7s--9--9s--11--11----|------------------------|
--L--------------------------|--0----L--0--L--0--0----|
--L--5--5s--7--7s---9---9----|--0----L--0--L--0--0----|
--L--------------------------|--0----L--0--L--0--0----|


          PM PM                PM PM    PM    PM PM PM  
  E   S S E  E  E  E  E  E     E  E  E  E  E  E  E  E   
----------------------------|--------------------------|
----------------------------|--------------------------|
--7s--5---------7-----5-----|--------------------------|
----------------------------|--------------------------|
--5s--3---------5-----3-----|--------5-----4-----------|
----------0--0--------------|--2--2-----2-----2--2--2--|


     PM    PM PM PM PM PM    PM PM    PM    PM PM PM  
  E  E  E  E  E  E  E  E     E  E  E  E  E  E  E  E   
--------------------------|--------------------------|
--------------------------|--------------------------|
--------------------------|--------------------------|
--------------------------|--------------------------|
--5-----4-----------------|--------5-----4-----------|
-----2-----2--0--2--2--0--|--2--2-----2-----2--2--2--|


     PM    PM                 PM    PM    PM    PM     
  E  E  E  E  E  E    Q       E  E  E  E  E  E  E  E   
---------------------------|--------------------------|
---------------------------|--------------------------|
---------------------------|--------------------------|
---------------------------|-----5-----4-----5-----4--|
--5-----4-----------<>5----|--3-----3-----3-----3-----|
-----2-----2--0--2---------|--------------------------|


  PM    PM    PM    PM       PM    PM    PM    PM     
  E  E  E  E  E  E  E  E     E  E  E  E  E  E  E  E   
--------------------------|--------------------------|
--------------------------|--------------------------|
--------------------------|--------------------------|
-----5-----4-----5-----4--|-----5-----4-----5-----4--|
--3-----3-----3-----3-----|--2-----2-----2-----2-----|
--------------------------|--------------------------|


  PM    PM    PM    PM       PM    PM    PM    PM     
  E  E  E  E  E  E  E  E     E  E  E  E  E  E  E  E   
--------------------------|--------------------------|
--------------------------|--------------------------|
--------------------------|--------------------------|
-----5-----4-----5-----4--|-----5-----4-----5-----4--|
--2-----2-----2-----2-----|--3-----3-----3-----3-----|
--------------------------|--------------------------|


  PM    PM    PM    PM                                                    
  E  E  E  E  E  E  E  E     Q    E  E  Q    Q       H         H          
--------------------------|-----------------------|----------------------|
--------------------------|-----------------------|----------------------|
--------------------------|-----------------------|----------------------|
-----5-----4-----5-----4--|--0----L--0--L----0----|--L-------------------|
--3-----3-----3-----3-----|--0----L--0--L----0----|--L--------10\--------|
--------------------------|--0----L--0--L----0----|--L-------------------|


  Q    E  E  Q    Q       H        E  E  E  E     Q    E  E  Q    Q     
-----------------------|-----------------------|-----------------------|
-----------------------|-----------------------|-----------------------|
-----------------------|-----------------------|-----------------------|
--2----L--2--L----2----|--L--------L-----------|--5----L--5--L----5----|
--2----L--2--L----2----|--L--------L-----------|--5----L--5--L----5----|
--2----L--2--L----2----|--L--------L--0--2--4--|--5----L--5--L----5----|


  W                   Q    E  E  Q    Q       W                 
-------------------|-----------------------|-------------------|
-------------------|-----------------------|-------------------|
-------------------|--5----L--5--L----5----|--L----------------|
--L----------------|--5----L--5--L----5----|--L----------------|
--L----------------|--3----L--3--L----3----|--L----------------|
--L----------------|-----------------------|-------------------|


  Q    E  E  Q    Q       H        E  E  E  E     Q    E  E  Q    Q     
-----------------------|-----------------------|-----------------------|
-----------------------|-----------------------|-----------------------|
--2----L--2--L----2----|--L--------L-----------|-----------------------|
--2----L--2--L----2----|--L--------L-----------|--2----L--2--L----2----|
--0----L--0--L----0----|--L--------L-----------|--2----L--2--L----2----|
-----------------------|--------------2--5--4--|--2----L--2--L----2----|


  H        E  E  E  E     Q    E  E  Q    Q       W                 
-----------------------|-----------------------|-------------------|
-----------------------|-----------------------|-------------------|
-----------------------|-----------------------|-------------------|
--L--------L-----------|--5----L--5--L----5----|--L----------------|
--L--------L-----------|--5----L--5--L----5----|--L----------------|
--L--------L--0--2--4--|--5----L--5--L----5----|--L----------------|


                                              PM PM    PM PM    PM PM  
  Q    E  E  Q    Q       W                   E  E  E  E  E  E  E  E   
-----------------------|-------------------|--------------------------|
-----------------------|-------------------|--------------------------|
--5----L--5--L----5----|--L----------------|--------------------------|
--5----L--5--L----5----|--L----------------|--7--7-----7--7-----7--7--|
--3----L--3--L----3----|--L----------------|--7--7-----7--7-----7--7--|
-----------------------|-------------------|--7--7-----7--7-----7--7--|


     PM PM                  PM PM    PM PM    PM PM                           
  E  E  E  E  Q    E  E     E  E  E  E  E  E  E  E     Q    S  E.  Q    Q     
-------------------------|--------------------------|------------------------|
-------------------------|--------------------------|------------------------|
-------------------------|--------------------------|------------------------|
-----7--7-----5----7-----|--7--7-----7--7-----7--7--|-------7s-8---7----5----|
-----7--7-----5----7-----|--7--7-----7--7-----7--7--|-------7s-8---7----5----|
-----7--7-----5----7-----|--7--7-----7--7-----7--7--|-------7s-8---7----5----|


  PM PM    PM    PM PM PM       PM    PM PM PM PM PM  
  E  E  E  E  E  E  E  E     E  E  E  E  E  E  E  E   
--------------------------|--------------------------|
--------------------------|--------------------------|
--------------------------|--------------------------|
--------------------------|--------------------------|
--------5-----4-----------|--5-----4-----------------|
--2--2-----2-----2--2--2--|-----2-----2--0--2--2--0--|


  PM PM    PM    PM PM PM       PM    PM               
  E  E  E  E  E  E  E  E     E  E  E  E  E  E    Q     
--------------------------|---------------------------|
--------------------------|---------------------------|
--------------------------|---------------------------|
--------------------------|---------------------------|
--------5-----4-----------|--5-----4-----------<>5----|
--2--2-----2-----2--2--2--|-----2-----2--0--2---------|


  PM PM    PM    PM PM PM       PM    PM PM PM PM PM  
  E  E  E  E  E  E  E  E     E  E  E  E  E  E  E  E   
--------------------------|--------------------------|
--------------------------|--------------------------|
--------------------------|--------------------------|
--------------------------|--------------------------|
--------5-----4-----------|--5-----4-----------------|
--2--2-----2-----2--2--2--|-----2-----2--0--2--2--0--|


  PM PM    PM    PM PM PM       PM    PM                                        
  E  E  E  E  E  E  E  E     E  E  E  E  E  E    Q       Q    E  E  E  E  Q     
--------------------------|---------------------------|------------------------|
--------------------------|---------------------------|------------------------|
--------------------------|---------------------------|------------------------|
--------------------------|---------------------------|--0----L--0--L--0--0----|
--------5-----4-----------|--5-----4-----------<>5----|--0----L--0--L--0--0----|
--2--2-----2-----2--2--2--|-----2-----2--0--2---------|--0----L--0--L--0--0----|


  E  E  E   E  E    E   Q       Q    E  E  E  E  Q     
-----------------------------|------------------------|
-----------------------------|------------------------|
-----7--7s--9--9s--11--11----|------------------------|
--L--------------------------|--0----L--0--L--0--0----|
--L--5--5s--7--7s---9---9----|--0----L--0--L--0--0----|
--L--------------------------|--0----L--0--L--0--0----|


          PM PM                PM PM    PM    PM PM PM  
  E   S S E  E  E  E  E  E     E  E  E  E  E  E  E  E   
----------------------------|--------------------------|
----------------------------|--------------------------|
--7s--5---------7-----5-----|--------------------------|
----------------------------|--------------------------|
--5s--3---------5-----3-----|--------5-----4-----------|
----------0--0--------------|--2--2-----2-----2--2--2--|


     PM    PM PM PM PM PM    PM PM    PM    PM PM PM  
  E  E  E  E  E  E  E  E     E  E  E  E  E  E  E  E   
--------------------------|--------------------------|
--------------------------|--------------------------|
--------------------------|--------------------------|
--------------------------|--------------------------|
--5-----4-----------------|--------5-----4-----------|
-----2-----2--0--2--2--0--|--2--2-----2-----2--2--2--|


     PM    PM                 PM    PM    PM    PM     
  E  E  E  E  E  E    Q       E  E  E  E  E  E  E  E   
---------------------------|--------------------------|
---------------------------|--------------------------|
---------------------------|--------------------------|
---------------------------|-----5-----4-----5-----4--|
--5-----4-----------<>5----|--3-----3-----3-----3-----|
-----2-----2--0--2---------|--------------------------|


  PM    PM    PM    PM       PM    PM    PM    PM     
  E  E  E  E  E  E  E  E     E  E  E  E  E  E  E  E   
--------------------------|--------------------------|
--------------------------|--------------------------|
--------------------------|--------------------------|
-----5-----4-----5-----4--|-----5-----4-----5-----4--|
--3-----3-----3-----3-----|--2-----2-----2-----2-----|
--------------------------|--------------------------|


  PM    PM    PM    PM       PM    PM    PM    PM     
  E  E  E  E  E  E  E  E     E  E  E  E  E  E  E  E   
--------------------------|--------------------------|
--------------------------|--------------------------|
--------------------------|--------------------------|
-----5-----4-----5-----4--|-----5-----4-----5-----4--|
--2-----2-----2-----2-----|--3-----3-----3-----3-----|
--------------------------|--------------------------|


  PM    PM    PM    PM                                                    
  E  E  E  E  E  E  E  E     Q    E  E  Q    Q       H         H          
--------------------------|-----------------------|----------------------|
--------------------------|-----------------------|----------------------|
--------------------------|-----------------------|----------------------|
-----5-----4-----5-----4--|--0----L--0--L----0----|--L-------------------|
--3-----3-----3-----3-----|--0----L--0--L----0----|--L--------10\--------|
--------------------------|--0----L--0--L----0----|--L-------------------|


  Q    E  E  Q    Q       H        E  E  E  E     Q    E  E  Q    Q     
-----------------------|-----------------------|-----------------------|
-----------------------|-----------------------|-----------------------|
-----------------------|-----------------------|-----------------------|
--2----L--2--L----2----|--L--------L-----------|--5----L--5--L----5----|
--2----L--2--L----2----|--L--------L-----------|--5----L--5--L----5----|
--2----L--2--L----2----|--L--------L--0--2--4--|--5----L--5--L----5----|


  W                   Q    E  E  Q    Q       W                 
-------------------|-----------------------|-------------------|
-------------------|-----------------------|-------------------|
-------------------|--5----L--5--L----5----|--L----------------|
--L----------------|--5----L--5--L----5----|--L----------------|
--L----------------|--3----L--3--L----3----|--L----------------|
--L----------------|-----------------------|-------------------|


  Q    E  E  Q    Q       H        E  E  E  E     Q    E  E  Q    Q     
-----------------------|-----------------------|-----------------------|
-----------------------|-----------------------|-----------------------|
--2----L--2--L----2----|--L--------L-----------|-----------------------|
--2----L--2--L----2----|--L--------L-----------|--2----L--2--L----2----|
--0----L--0--L----0----|--L--------L-----------|--2----L--2--L----2----|
-----------------------|--------------2--5--4--|--2----L--2--L----2----|


  H        E  E  E  E     Q    E  E  Q    Q       W                 
-----------------------|-----------------------|-------------------|
-----------------------|-----------------------|-------------------|
-----------------------|-----------------------|-------------------|
--L--------L-----------|--5----L--5--L----5----|--L----------------|
--L--------L-----------|--5----L--5--L----5----|--L----------------|
--L--------L--0--2--4--|--5----L--5--L----5----|--L----------------|


                                              PM PM    PM PM    PM PM  
  Q    E  E  Q    Q       W                   E  E  E  E  E  E  E  E   
-----------------------|-------------------|--------------------------|
-----------------------|-------------------|--------------------------|
--5----L--5--L----5----|--L----------------|--------------------------|
--5----L--5--L----5----|--L----------------|--7--7-----7--7-----7--7--|
--3----L--3--L----3----|--L----------------|--7--7-----7--7-----7--7--|
-----------------------|-------------------|--7--7-----7--7-----7--7--|


     PM PM                  PM PM    PM PM    PM PM                           
  E  E  E  E  Q    E  E     E  E  E  E  E  E  E  E     Q    S  E.  Q    Q     
-------------------------|--------------------------|------------------------|
-------------------------|--------------------------|------------------------|
-------------------------|--------------------------|------------------------|
-----7--7-----5----7-----|--7--7-----7--7-----7--7--|-------7s-8---7----5----|
-----7--7-----5----7-----|--7--7-----7--7-----7--7--|-------7s-8---7----5----|
-----7--7-----5----7-----|--7--7-----7--7-----7--7--|-------7s-8---7----5----|


          PM PM    PM PM          PM PM PM    PM PM            PM PM    PM PM  
  Q    E  E  E  E  E  E     E  E  E  E  E  E  E  E     Q    E  E  E  E  E  E   
-------------------------|--------------------------|-------------------------|
-------------------------|--------------------------|-------------------------|
-------------------------|--------------------------|-------------------------|
-------------------------|--------------------------|-------------------------|
--2----5--------2--------|-----2-----------2--------|--2----5--------2--------|
--2-------2--3-----3--4--|--L-----4--0--3-----4--3--|--2-------2--3-----3--4--|


        PM PM PM    PM PM            PM PM    PM PM          PM PM PM    PM PM  
  E  E  E  E  E  E  E  E     Q    E  E  E  E  E  E     E  E  E  E  E  E  E  E   
--------------------------|-------------------------|--------------------------|
--------------------------|-------------------------|--------------------------|
--------------------------|-------------------------|--------------------------|
--------------------------|-------------------------|--------------------------|
-----2-----------2--------|--2----5--------2--------|-----2-----------2--------|
--L-----4--0--3-----4--3--|--2-------2--3-----3--4--|--L-----4--0--3-----4--3--|


          PM PM    PM PM          PM PM PM    PM PM            PM PM    PM PM  
  Q    E  E  E  E  E  E     E  E  E  E  E  E  E  E     Q    E  E  E  E  E  E   
-------------------------|--------------------------|-------------------------|
-------------------------|--------------------------|-------------------------|
-------------------------|--------------------------|-------------------------|
-------------------------|--------------------------|-------------------------|
--2----5--------2--------|-----2-----------2--------|--2----5--------2--------|
--2-------2--3-----3--4--|--L-----4--0--3-----4--3--|--2-------2--3-----3--4--|


        PM PM PM    PM PM            PM PM    PM PM          PM PM PM    PM PM  
  E  E  E  E  E  E  E  E     Q    E  E  E  E  E  E     E  E  E  E  E  E  E  E   
--------------------------|-------------------------|--------------------------|
--------------------------|-------------------------|--------------------------|
--------------------------|-------------------------|--------------------------|
--------------------------|-------------------------|--------------------------|
-----2-----------2--------|--2----5--------2--------|-----2-----------2--------|
--L-----4--0--3-----4--3--|--2-------2--3-----3--4--|--L-----4--0--3-----4--3--|


          PM PM    PM PM          PM PM PM    PM PM            PM PM    PM PM  
  Q    E  E  E  E  E  E     E  E  E  E  E  E  E  E     Q    E  E  E  E  E  E   
-------------------------|--------------------------|-------------------------|
-------------------------|--------------------------|-------------------------|
-------------------------|--------------------------|-------------------------|
-------------------------|--------------------------|-------------------------|
--2----5--------2--------|-----2-----------2--------|--2----5--------2--------|
--2-------2--3-----3--4--|--L-----4--0--3-----4--3--|--2-------2--3-----3--4--|


        PM PM PM    PM PM            PM PM    PM PM          PM PM PM    PM PM  
  E  E  E  E  E  E  E  E     Q    E  E  E  E  E  E     E  E  E  E  E  E  E  E   
--------------------------|-------------------------|--------------------------|
--------------------------|-------------------------|--------------------------|
--------------------------|-------------------------|--------------------------|
--------------------------|-------------------------|--------------------------|
-----2-----------2--------|--2----5--------2--------|-----2-----------2--------|
--L-----4--0--3-----4--3--|--2-------2--3-----3--4--|--L-----4--0--3-----4--3--|


          PM PM    PM PM          PM PM PM    PM PM                       
  Q    E  E  E  E  E  E     E  E  E  E  E  E  E  E     H        H         
-------------------------|--------------------------|--------------------|
-------------------------|--------------------------|--------------------|
-------------------------|--------------------------|--------------------|
-------------------------|--------------------------|--7--------9--------|
--2----5--------2--------|-----2-----------2--------|--------------------|
--2-------2--3-----3--4--|--L-----4--0--3-----4--3--|--7--------9--------|


   H        H           H        H            H         H         
---------------------|--------------------|----------------------|
---------------------|--------------------|----------------------|
---------------------|--------------------|----------------------|
--10--------9--------|--7--------9--------|--10--------12--------|
---------------------|--------------------|----------------------|
--10--------9--------|--7--------9--------|--10--------12--------|


  PM PM    PM    PM PM PM       PM    PM PM PM PM PM  
  E  E  E  E  E  E  E  E     E  E  E  E  E  E  E  E   
--------------------------|--------------------------|
--------------------------|--------------------------|
--------------------------|--------------------------|
--------------------------|--------------------------|
--------5-----4-----------|--5-----4-----------------|
--2--2-----2-----2--2--2--|-----2-----2--0--2--2--0--|


  PM PM    PM    PM PM PM       PM    PM                                      
  E  E  E  E  E  E  E  E     E  E  E  E    H           Q    E  E  E  E  Q     
--------------------------|-------------------------|------------------------|
--------------------------|-------------------------|------------------------|
--------------------------|-------------------------|------------------------|
--------------------------|-------------------------|--0----L--0--L--0--0----|
--------5-----4-----------|--5-----4----------------|--0----L--0--L--0--0----|
--2--2-----2-----2--2--2--|-----2-----2--<>5--------|--0----L--0--L--0--0----|


  E  E  E   E  E    E   Q       Q    E  E  E  E  Q     
-----------------------------|------------------------|
-----------------------------|------------------------|
-----7--7s--9--9s--11--11----|------------------------|
--L--------------------------|--0----L--0--L--0--0----|
--L--5--5s--7--7s---9---9----|--0----L--0--L--0--0----|
--L--------------------------|--0----L--0--L--0--0----|


                            PM PM    PM    PM PM PM       PM    PM PM PM PM PM  
  E  E  Q    E  E  E  E     E  E  E  E  E  E  E  E     E  E  E  E  E  E  E  E   
-------------------------|--------------------------|--------------------------|
-------------------------|--------------------------|--------------------------|
-----7--7----------------|--------------------------|--------------------------|
--L----------5-----4-----|--------------------------|--------------------------|
--L--5--5----3-----2-----|--------5-----4-----------|--5-----4-----------------|
--L----------------------|--2--2-----2-----2--2--2--|-----2-----2--0--2--2--0--|


  PM PM    PM    PM PM PM       PM    PM               PM    PM    PM    PM     
  E  E  E  E  E  E  E  E     E  E  E  E    H           E  E  E  E  E  E  E  E   
--------------------------|-------------------------|--------------------------|
--------------------------|-------------------------|--------------------------|
--------------------------|-------------------------|--------------------------|
--------------------------|-------------------------|-----5-----4-----5-----4--|
--------5-----4-----------|--5-----4----------------|--3-----3-----3-----3-----|
--2--2-----2-----2--2--2--|-----2-----2--<>5--------|--------------------------|


  PM    PM    PM    PM       PM    PM    PM    PM     
  E  E  E  E  E  E  E  E     E  E  E  E  E  E  E  E   
--------------------------|--------------------------|
--------------------------|--------------------------|
--------------------------|--------------------------|
-----5-----4-----5-----4--|-----5-----4-----5-----4--|
--3-----3-----3-----3-----|--2-----2-----2-----2-----|
--------------------------|--------------------------|


  PM    PM    PM    PM       PM    PM    PM    PM     
  E  E  E  E  E  E  E  E     E  E  E  E  E  E  E  E   
--------------------------|--------------------------|
--------------------------|--------------------------|
--------------------------|--------------------------|
-----5-----4-----5-----4--|-----5-----4-----5-----4--|
--2-----2-----2-----2-----|--3-----3-----3-----3-----|
--------------------------|--------------------------|


  PM    PM    PM    PM                                                    
  E  E  E  E  E  E  E  E     Q    E  E  Q    Q       H         H          
--------------------------|-----------------------|----------------------|
--------------------------|-----------------------|----------------------|
--------------------------|-----------------------|----------------------|
-----5-----4-----5-----4--|--0----L--0--L----0----|--L-------------------|
--3-----3-----3-----3-----|--0----L--0--L----0----|--L--------10\--------|
--------------------------|--0----L--0--L----0----|--L-------------------|


  Q    E  E  Q    Q       H        E  E  E  E     Q    E  E  Q    Q     
-----------------------|-----------------------|-----------------------|
-----------------------|-----------------------|-----------------------|
-----------------------|-----------------------|-----------------------|
--2----L--2--L----2----|--L--------L-----------|--5----L--5--L----5----|
--2----L--2--L----2----|--L--------L-----------|--5----L--5--L----5----|
--2----L--2--L----2----|--L--------L--0--2--4--|--5----L--5--L----5----|


  W                   Q    E  E  Q    Q       W                 
-------------------|-----------------------|-------------------|
-------------------|-----------------------|-------------------|
-------------------|--5----L--5--L----5----|--L----------------|
--L----------------|--5----L--5--L----5----|--L----------------|
--L----------------|--3----L--3--L----3----|--L----------------|
--L----------------|-----------------------|-------------------|


  Q    E  E  Q    Q       H        E  E  E  E     Q    E  E  Q    Q     
-----------------------|-----------------------|-----------------------|
-----------------------|-----------------------|-----------------------|
--2----L--2--L----2----|--L--------L-----------|-----------------------|
--2----L--2--L----2----|--L--------L-----------|--2----L--2--L----2----|
--0----L--0--L----0----|--L--------L-----------|--2----L--2--L----2----|
-----------------------|--------------2--5--4--|--2----L--2--L----2----|


  H        E  E  E  E     Q    E  E  Q    Q       W                 
-----------------------|-----------------------|-------------------|
-----------------------|-----------------------|-------------------|
-----------------------|-----------------------|-------------------|
--L--------L-----------|--5----L--5--L----5----|--L----------------|
--L--------L-----------|--5----L--5--L----5----|--L----------------|
--L--------L--0--2--4--|--5----L--5--L----5----|--L----------------|


                                              PM PM    PM PM    PM PM  
  Q    E  E  Q    Q       W                   E  E  E  E  E  E  E  E   
-----------------------|-------------------|--------------------------|
-----------------------|-------------------|--------------------------|
--5----L--5--L----5----|--L----------------|--------------------------|
--5----L--5--L----5----|--L----------------|--7--7-----7--7-----7--7--|
--3----L--3--L----3----|--L----------------|--7--7-----7--7-----7--7--|
-----------------------|-------------------|--7--7-----7--7-----7--7--|


     PM PM                  PM PM    PM PM    PM PM                           
  E  E  E  E  Q    E  E     E  E  E  E  E  E  E  E     Q    S  E.  Q    Q     
-------------------------|--------------------------|------------------------|
-------------------------|--------------------------|------------------------|
-------------------------|--------------------------|------------------------|
-----7--7-----5----7-----|--7--7-----7--7-----7--7--|-------7s-8---7----5----|
-----7--7-----5----7-----|--7--7-----7--7-----7--7--|-------7s-8---7----5----|
-----7--7-----5----7-----|--7--7-----7--7-----7--7--|-------7s-8---7----5----|


  PM PM    PM    PM PM PM       PM    PM PM PM PM PM  
  E  E  E  E  E  E  E  E     E  E  E  E  E  E  E  E   
--------------------------|--------------------------|
--------------------------|--------------------------|
--------------------------|--------------------------|
--------------------------|--------------------------|
--------5-----4-----------|--5-----4-----------------|
--2--2-----2-----2--2--2--|-----2-----2--0--2--2--0--|


  PM PM    PM    PM PM PM       PM    PM                 PM                    
  E  E  E  E  E  E  E  E     E  E  E  E  E  E    Q       Q    E  E  Q    Q     
--------------------------|---------------------------|-----------------------|
--------------------------|---------------------------|-----------------------|
--------------------------|---------------------------|-----------------------|
--------------------------|---------------------------|--2----L--3--L----0----|
--------5-----4-----------|--5-----4-----------<>5----|--2----L--3--L----0----|
--2--2-----2-----2--2--2--|-----2-----2--0--2---------|--2----L--3--L----0----|


                         PM PM PM                
  E  Q    E  H           E  E  E  E  Q    Q      
----------------------|------------------------||
----------------------|------------------------||
----------------------|------------------------||
--L--0----L--0--------|--0--2--0--2--L---------||
--L--0----L--0--------|--0--2--0--2--L---------||
--L--0----L--0--------|--0--2--0--2--L---------||

comments
We did not receive enough feedback on this tab! Please rate:
print report bad tab
1 2 3 4 5
I want to post or [tab]
guest
You may want to rate the tab now too:
select rating
Please do not post tabs as comments. Select "correction" instead!