Oops, an error
Loading. Please wait.

Broken Hearted Tab

ver2
ver2

Whole song

More versions @911Tabs.com
222 views 1 this week
no commentswrite comment
1 2 3 4 5
excellent!
x 1
Autoscroll
+/-
esc
set tempo
stop
Contributor
Difficulty
intermediate
Hey! There's an official Ultimate Guitar app which is ideal
for learning songs when you're away from computer. Get the app
WARNING: You are trying to view
                                    content from Ultimate-Guitar.com
                                    in an unauthorized application,
                                    which is prohibited.

                                    Please use an official Ultimate
                                    Guitar Tabs application for iPhone,
                                    iPad or Android to access legitimate
                                    chords, guitar, bass, and drum tabs
                                    from Ultimate-Guitar.com database.

                                    Type "ultimate guitar tabs" in Apple
                                    App Store's or Android Market's
                                    search to find the application.
EIGHTEEN VISIONS - BROKEN HEARTED

    C#|---------------------------|
    G#|-------0--------------0----|
GTR  E|-----4--------4-----4------|
 1   B|---6--------6-----6--------| x2
    F#|-4--------4-----0----------|
     B|---------------------------|

    C#|--------------------------------------------------|
    G#|-------0-------0------0----------0-------0------0-|
GTR  E|-4-2-----2---2------2------4-2-----2---2------2---|
 1   B|-----6-----6------6------------6-----6------6-----| x2
    F#|--------------------------------------------------|
     B|--------------------------------------------------|

    C#|--------------------------------------------------|
    G#|-----------------10--9--7-----10--9--7------------|
GTR  E|---------------------------9------------9--8------|
 2   B|--------------------------------------------------| x2
    F#|--------------------------------------------------|
     B|--------------------------------------------------|

    C#|--------------------------------------------------|
    G#|-------0-------0------0----------0-------0------0-|
GTR  E|-4-2-----2---2------2------4-2-----2---2------2---|
 1   B|-----6-----6------6------------6-----6------6-----| x2
    F#|--------------------------------------------------|
     B|--------------------------------------------------|

    C#|-------------------------------------|
    G#|-------------------------------------|
GTR  E|-6------6------6---------------------|
 2   B|-6--6-6-6--6-6-6-6-7------7------7---| x2
    F#|-4--4-4-4--4-4-4-4-7--7-7-7--7-7-7-7-|
     B|-------------------7--7-7-7--7-7-7-7-|
           P M    P M   PM   P M    P M   PM

    C#|-------------------------------------|
    G#|-------------------------------------|
GTR  E|-9--9--8-----8---8-----8-------------|
 1   B|-11-11-9-9-9-9-9-9-9-9-9-9-9-11-11-9-| 
    F#|-------------------------------------|
     B|-------------------------------------|
        PM PM P M P M P M P M P M PMPM PM PM

    C#|---------------------------|
    G#|---------------------------|
GTR  E|---------------------------|
 2   B|-4-4-4--4-4-4-4-4-4--6-6-6-| 
    F#|-4-4-4--4-4-4-4-4-4--4-4-4-|
     B|-4-4-4--4-4-4-4-4-4--4-4-4-|

    C#|-----------------------------------|
    G#|-------------------------9-9-10-10-|
GTR  E|-9--9--8-----8---8-----8-----------|
 1   B|-11-11-9-9-9-9-9-9-9-9-9-9-9-9--9--| 
    F#|-----------------------------------|
     B|-----------------------------------|
        PM PM P M P M P M P M PM

    C#|---------------------------|
    G#|---------------------------|
GTR  E|---------------------------|
 2   B|-7-7-7--7-7-7-7-7-7--7-7-7-| 
    F#|-7-7-7--7-7-7-7-7-7--7-7-7-|
     B|-7-7-7--7-7-7-7-7-7--7-7-7-|

    C#|-------------------------------------|
    G#|-------------------------------------|
GTR  E|-9--9--8-----8---8-----8-------------|
 1   B|-11-11-9-9-9-9-9-9-9-9-9-9-9-11-11-9-| 
    F#|-------------------------------------|
     B|-------------------------------------|
        PM PM P M P M P M P M P M PMPM PM PM

    C#|---------------------------|
    G#|---------------------------|
GTR  E|---------------------------|
 2   B|-4-4-4--4-4-4-4-4-4--6-6-6-| 
    F#|-4-4-4--4-4-4-4-4-4--4-4-4-|
     B|-4-4-4--4-4-4-4-4-4--4-4-4-|

    C#|---------------------------------------|
    G#|---------------------------------------|
GTR  E|-9--9--8-----8---8-----8-8-8-8-8-8-8-8-|
 1   B|-11-11-9-9-9-9-9-9-9-9-9-9-9-9-9-9-9-9-| 
    F#|---------------------------------------|
     B|---------------------------------------|
        PM PM P M P M P M P M 

    C#|---------------------------|
    G#|---------------------------|
GTR  E|---------------------------|
 2   B|-7-7-7--7-7-7-7-7-7--7-7-7-| 
    F#|-7-7-7--7-7-7-7-7-7--7-7-7-|
     B|-7-7-7--7-7-7-7-7-7--7-7-7-|

    C#|-----------------------------------------------------------------|
    G#|-----------------------------------------------------------------|
GTR  E|-----------------6-6-6-6-6-6-6-6---------------------------------|
 1   B|-2-2-2-2-2-2-2-2-6-6-6-6-6-6-6-6-7-7-7-7-7-7-7-7-7-7-7-7-7-7-7-7-| x2
    F#|-2-2-2-2-2-2-2-2-4-4-4-4-4-4-4-4-7-7-7-7-7-7-7-7-7-7-7-7-7-7-7-7-|
     B|-2-2-2-2-2-2-2-2-----------------7-7-7-7-7-7-7-7-7-7-7-7-7-7-7-7-|

    C#|-----------------------------------------------------------------|
    G#|----------------------10----9----7-------------------------------|
GTR  E|-9----8----------9---------------------------------------9-------|
 2   B|-----------9-----------------------------------------------------| x2
    F#|-----------------------------------------------------------------|
     B|-----------------------------------------------------------------|

    C#|--------------------------------------------------|
    G#|-------0-------0------0----------0-------0------0-|
GTR  E|-4-2-----2---2------2------4-2-----2---2------2---|
 1   B|-----6-----6------6------------6-----6------6-----| 
    F#|--------------------------------------------------|
     B|--------------------------------------------------|

    C#|--------------------------------------------------|
    G#|-----------------10--9--7-----10--9--7------------|
GTR  E|---------------------------9------------9--8------|
 2   B|--------------------------------------------------| 
    F#|--------------------------------------------------|
     B|--------------------------------------------------|

    C#|--------------------------------------------------|
    G#|-------0-------0------0----------0-------0------0-|
GTR  E|-4-2-----2---2------2------4-2-----2---2------2---|
 1   B|-----6-----6------6------------6-----6------6-----| x2
    F#|--------------------------------------------------|
     B|--------------------------------------------------|

    C#|-------------------------------------|
    G#|-------------------------------------|
GTR  E|-6------6------6---------------------|
 2   B|-6--6-6-6--6-6-6-6-7------7------7---| x2
    F#|-4--4-4-4--4-4-4-4-7--7-7-7--7-7-7-7-|
     B|-------------------7--7-7-7--7-7-7-7-|
           P M    P M   PM   P M    P M   PM

    C#|-------------------------------------|
    G#|-------------------------------------|
GTR  E|-9--9--8-----8---8-----8-------------|
 1   B|-11-11-9-9-9-9-9-9-9-9-9-9-9-11-11-9-| 
    F#|-------------------------------------|
     B|-------------------------------------|
        PM PM P M P M P M P M P M PMPM PM PM

    C#|---------------------------|
    G#|---------------------------|
GTR  E|---------------------------|
 2   B|-4-4-4--4-4-4-4-4-4--6-6-6-| 
    F#|-4-4-4--4-4-4-4-4-4--4-4-4-|
     B|-4-4-4--4-4-4-4-4-4--4-4-4-|

    C#|-----------------------------------|
    G#|-------------------------9-9-10-10-|
GTR  E|-9--9--8-----8---8-----8-----------|
 1   B|-11-11-9-9-9-9-9-9-9-9-9-9-9-9--9--| 
    F#|-----------------------------------|
     B|-----------------------------------|
        PM PM P M P M P M P M PM

    C#|---------------------------|
    G#|---------------------------|
GTR  E|---------------------------|
 2   B|-7-7-7--7-7-7-7-7-7--7-7-7-| 
    F#|-7-7-7--7-7-7-7-7-7--7-7-7-|
     B|-7-7-7--7-7-7-7-7-7--7-7-7-|

    C#|-------------------------------------|
    G#|-------------------------------------|
GTR  E|-9--9--8-----8---8-----8-------------|
 1   B|-11-11-9-9-9-9-9-9-9-9-9-9-9-11-11-9-| 
    F#|-------------------------------------|
     B|-------------------------------------|
        PM PM P M P M P M P M P M PMPM PM PM

    C#|---------------------------|
    G#|---------------------------|
GTR  E|---------------------------|
 2   B|-4-4-4--4-4-4-4-4-4--6-6-6-| 
    F#|-4-4-4--4-4-4-4-4-4--4-4-4-|
     B|-4-4-4--4-4-4-4-4-4--4-4-4-|


    C#|-----------------------------------------------------------------|
    G#|-----------------------------------------------------------------|
GTR  E|-----------------6-6-6-6-6-6-6-6---------------------------------|
 1   B|-2-2-2-2-2-2-2-2-6-6-6-6-6-6-6-6-7-7-7-7-7-7-7-7-7-7-7-7-7-7-7-7-| x4
    F#|-2-2-2-2-2-2-2-2-4-4-4-4-4-4-4-4-7-7-7-7-7-7-7-7-7-7-7-7-7-7-7-7-|
     B|-2-2-2-2-2-2-2-2-----------------7-7-7-7-7-7-7-7-7-7-7-7-7-7-7-7-|

    C#|-----------------------------------------------------------------|
    G#|----------------------10----9----7-------------------------------|
GTR  E|-9----8----------9---------------------------------------9-------|
 2   B|-----------9-----------------------------------------------------| x4
    F#|-----------------------------------------------------------------|
     B|-----------------------------------------------------------------|

    C#|-----------------------------------------------------------------|
    G#|-----------------------------------------------------------------|
GTR  E|-----------------------------------------------------------------|
 1   B|-4-4-4-4-4-4-4-4-4-4-4-4-4-6-6-6-7-7-7-7-7-7-7-7-7-7-7-7-7-7-7-7-|
    F#|-4-4-4-4-4-4-4-4-4-4-4-4-4-6-6-6-7-7-7-7-7-7-7-7-7-7-7-7-7-7-7-7-|
     B|-4-4-4-4-4-4-4-4-4-4-4-4-4-4-4-4-7-7-7-7-7-7-7-7-7-7-7-7-7-7-7-7-|

    C#|-----------------------------------------------------------------|
    G#|-----12---10----9--------------------12---10---9-----------------|
GTR  E|-9------------------11---9---8---9-----------------11---9---8----|
 2   B|-----------------------------------------------------------------|
    F#|-----------------------------------------------------------------|
     B|-----------------------------------------------------------------|

    C#|-----------------------------------------------------|
    G#|-----------------------------------------------------|
GTR  E|-----------------------------------------------------|
 1   B|-4-4-4--4-4-4-4-4-4--6-6-6-7-7-7--7-7-7-7-7-7--7-7-7-| 
    F#|-4-4-4--4-4-4-4-4-4--4-4-4-7-7-7--7-7-7-7-7-7--7-7-7-|
     B|-4-4-4--4-4-4-4-4-4--4-4-4-7-7-7--7-7-7-7-7-7--7-7-7-|

    C#|----------------------------------------------------|
    G#|----------------------------------------------------|
GTR  E|-9---13--11--9--8----------8-9-8-----8---8----8-9-8-|
 2   B|-------------------9---/11-------9-----9---9--------|
    F#|----------------------------------------------------|
     B|----------------------------------------------------|

    C#|---------------------------|
    G#|-------0--------------0----|
GTR  E|-----4--------4-----4------|
 1   B|---6--------6-----6--------| x2
    F#|-4--------4-----0----------|
     B|---------------------------|

    C#|---------------------------|
    G#|---------------------------|
GTR  E|-9-------------------------|
 2   B|---------------------------|
    F#|---------------------------|
     B|---------------------------|

    C#|---------------------------|
    G#|-------0--------------0----|
GTR  E|-----4--------4-----4------|
 1   B|---6--------6-----6--------| 
    F#|-4--------4-----0----------|
     B|---------------------------|

    C#|-------------------------------------|
    G#|-------------------------------------|
GTR  E|-6------6------6---------------------|
 2   B|-6--6-6-6--6-6-6-6-7------7------7---| 
    F#|-4--4-4-4--4-4-4-4-7--7-7-7--7-7-7-7-|
     B|-------------------7--7-7-7--7-7-7-7-|
           P M    P M   PM   P M    P M   PM

    C#|-----------------------------------|
    G#|-------0---------------------------|
GTR  E|-----4--------4--------------------|
 1   B|---6--------6------7-7-7-7-7-7-7-7-| 
    F#|-4--------4--------7-7-7-7-7-7-7-7-|
     B|-------------------7-7-7-7-7-7-7-7-|

    C#|-----------------------------------|
    G#|-----------------------------------|
GTR  E|-6------6------6-------------------|
 2   B|-6--6-6-6--6-6-6-6-7-7-7-7-7-7-7-7-| 
    F#|-4--4-4-4--4-4-4-4-7-7-7-7-7-7-7-7-|
     B|-------------------7-7-7-7-7-7-7-7-|

    C#|-----------------------------------------------------------------|
    G#|-----------------------------------------------------------------|
GTR  E|-----------------6-6-6-6-6-6-6-6---------------------------------|
 1   B|-2-2-2-2-2-2-2-2-6-6-6-6-6-6-6-6-7-7-7-7-7-7-7-7-7-7-7-7-7-7-7-7-| x2
    F#|-2-2-2-2-2-2-2-2-4-4-4-4-4-4-4-4-7-7-7-7-7-7-7-7-7-7-7-7-7-7-7-7-|
     B|-2-2-2-2-2-2-2-2-----------------7-7-7-7-7-7-7-7-7-7-7-7-7-7-7-7-|

    C#|-----------------------------------------------------------------|
    G#|----------------------10----9----7-------------------------------|
GTR  E|-9----8----------9---------------------------------------9-------|
 2   B|-----------9-----------------------------------------------------| x2
    F#|-----------------------------------------------------------------|
     B|-----------------------------------------------------------------|

    C#|-----------------------------------------------------------------|
    G#|-----------------------------------------------------------------|
GTR  E|-----------------6-6-6-6-6-6-6-6---------------------------------|
 1   B|-2-2-2-2-2-2-2-2-6-6-6-6-6-6-6-6-7-7-7-7-7-7-7-7-7-7-7-7-7-7-7-7-| x2
    F#|-2-2-2-2-2-2-2-2-4-4-4-4-4-4-4-4-7-7-7-7-7-7-7-7-7-7-7-7-7-7-7-7-|
     B|-2-2-2-2-2-2-2-2-----------------7-7-7-7-7-7-7-7-7-7-7-7-7-7-7-7-|

    C#|--------------------------------------------------|
    G#|-----------------10--9--7-----10--9--7------------|
GTR  E|-9---8-------9-------------9------------9--8------|
 2   B|---------9----------------------------------------| x2
    F#|--------------------------------------------------|
     B|--------------------------------------------------|

    C#|------------------|
    G#|------------------|
GTR  E|------------------|
 1   B|-2----------------|
    F#|-2----------------|
     B|-2----------------|

    C#|------------------|
    G#|------------------|
GTR  E|------------------|
 2   B|-9----------------|
    F#|------------------|
     B|------------------|
comments
We did not receive enough feedback on this tab! Please rate:
print report bad tab
1 2 3 4 5
I want to post or [tab]
guest
You may want to rate the tab now too:
select rating
Please do not post tabs as comments. Select "correction" instead!