Oops, an error
Loading. Please wait.

Revolutionizing The Sound Of Music Tab

ver2
ver2

Whole song

More versions @911Tabs.com
71 views 1 this week
no commentswrite comment
1 2 3 4 5
please rate
Autoscroll
+/-
esc
set tempo
stop
Contributor
Difficulty
Tuning
intermediate
B F# B E G# C#
WARNING: You are trying to view
                                    content from Ultimate-Guitar.com
                                    in an unauthorized application,
                                    which is prohibited.

                                    Please use an official Ultimate
                                    Guitar Tabs application for iPhone,
                                    iPad or Android to access legitimate
                                    chords, guitar, bass, and drum tabs
                                    from Ultimate-Guitar.com database.

                                    Type "ultimate guitar tabs" in Apple
                                    App Store's or Android Market's
                                    search to find the application.
    C#|-----------------|
    G#|-333333333333333-|
GTR  E|-666666666666666-|
 1   B|-----------------|
    F#|-----------------|
     B|-----------------|

    C#|----------------------------------------------------------|
    G#|-333333333333333333333333333333-55555555-7-7-7-7-7-7-7-7--|
GTR  E|-666666666666666666666666666666-88888888-1010101010101010-|
1+2  B|----------------------------------------------------------|
    F#|----------------------------------------------------------|
     B|----------------------------------------------------------|
                                    
    C#|-------------------------|
    G#|-----------------------3-|
GTR  E|-----------------------6-|
1+2  B|-------------------------| x4
    F#|-2-1-0-0-1-3-1-0-0-000---|
     B|-2-1-0-0-1-3-1-0-0-000---|
                      P M P M 
                                                        
    C#|-------------------------------------------------------|
    G#|-----3-----3-----3-------------3-----3-----------------|
GTR  E|-----6-----6-----6-------------6-----6-----------------|
1+2  B|-------------------------------------------------------|
    F#|-000---000---000---1-0-1-3-000---000---0-1-2-3-0-1-2-3-|
     B|-000---000---000---1-0-1-3-000---000---0-1-2-3-0-1-2-3-|
        P M       P M   P M           P M   P M                 
                                                  
    C#|-------------------------------------------------------|
    G#|-----3-----3-----3-------------3-----3-----------------|
GTR  E|-----6-----6-----6-------------6-----6-----------------|
1+2  B|-------------------------------------------------------| x2
    F#|-0-0---0-0---0-0---1-0-1-3-0-0---0-0---0-1-2-3-0-1-2-3-|
     B|-0-0---0-0---0-0---1-0-1-3-0-0---0-0---0-1-2-3-0-1-2-3-|  
        P M   P M   P M           P M   P M  
        
    C#|--------------| 
    G#|--------------|
GTR  E|-------5-4----|
 1   B|-4-3-6-----5--| 
    F#|--------------|
     B|--------------| 

    C#|--------------| 
    G#|-------6-5----|
GTR  E|-4-3-7-----5--| 
 2   B|--------------| 
    F#|--------------|
     B|--------------|

    C#|-------------------------|
    G#|-----------------------3-|
GTR  E|-----------------------6-|
1+2  B|-------------------------| x4
    F#|-2-1-0-0-1-3-1-0-0-000---|
     B|-2-1-0-0-1-3-1-0-0-000---|
                      P M P M 
                                
    C#|------------------------------------------|
    G#|-3-3-3-3-3-3-3-3-3-3-3-3------------------|
GTR  E|-6-6-6-6-6-6-6-6-6-6-6-6----------PH--PH--|
 1   B|------------------------------8--\12--11--| 
    F#|-------------------------0----------------|
     B|-------------------------0----------------|

PH = PINCHED HARMONIC
                                     
    C#|------------------------------------------|
    G#|---------3-3-3-3-3-3-3-3------------------|
GTR  E|---------6-6-6-6-6-6-6-6------7--/14--13--|
 2   B|------------------------------------------| 
    F#|-------------------------0----------------|
     B|-------------------------0----------------|
                                                                                                
    C#|---------------------------------|
    G#|---------------------------------|
GTR  E|---------------------------------|
1+2  B|-------8---8-----1-0-1-2/4-4-4-4-| 1,3
    F#|-0-0-0-------8p7-1-0-1-2/4-4-4-4-|
     B|-0-0-0---0-------1-0-1-2/4-4-4-4-|
        PMP M  PM                         

    C#|---------------------------------|
    G#|---------------------------------|
GTR  E|---------------------------------|
1+2  B|---------------------------------| 2
    F#|-0-0-0-1---1-----110-1/2-110-1/2-|
     B|-0-0-0---0---1p0-110-1/2-110-1/2-|
        PMP M  PM                         

 C#|---------------------------------|
 G#|---------------------------------|
  E|---------------------------------|
  B|-----------------1-0-1-2-1-0-1-4-| 4
 F#|-0-0-0-1---1-----1-0-1-2-1-0-1-4-|
  B|-0-0-0---0---1p0-1-0-1-2-1-0-1-4-|
     PMP M  PM                         

    C#|--------------------------------|
    G#|--------------------------------|
GTR  E|--------------------------------|
1+2  B|--------------------------------| x4
    F#|-0--000-000-000-2-1-0-1-0-2-4p3-|
     B|-0--000-000-000-2-1-0-1-0-2-4p3-|
        PM P M P M P M  

    C#|---------------------------------|
    G#|---------------------------------|
GTR  E|---------------------------------|
1+2  B|-------8---8-----1-0-1-2/4-4-4-4-| x2
    F#|-0-0-0-------8p7-1-0-1-2/4-4-4-4-|
     B|-0-0-0---0-------1-0-1-2/4-4-4-4-|
        PMP M  PM                        
  
    C#|---------------------------------|       
    G#|---------------------------------|
GTR  E|-----3-----3---3-----------------|
1+2  B|-----6-----6---6-----------------| x3
    F#|-0-0---0-0---0---0-0-0-0-0-0-0-0-|
     B|-0-0---0-0---0---0-0-0-0-0-0-0-0-|
        P M   P M  PM   P M P M P M P M                 
                
    C#|----------------------------------|
    G#|-----3-----3---3------------------|
GTR  E|-----6-----6---6------------------|
1+2  B|----------------------------------|
    F#|-0-0---0-0---0---0000000000000000-|
     B|-0-0---0-0---0---0000000000000000-|
        P M   P M  PM   PMPMPMPMPMPMPMPM   

    C#|----------------------------------|
    G#|----------------------------------|
GTR  E| -----3-----3---3-----------------|
1+2  B| -----6-----6---6-----------------|
    F#|-0-0----0-0---0---0-0-0-0-0-0-0-0-|
     B|-0-0----0-0---0---0-0-0-0-0-0-0-0-|
        P M    P M  PM   P M P M P M P M
             
    C#|--------------------|
    G#|--------------------|
GTR  E|--------------------|
1+2  B|-------------5/6----| x12
    F#|-5h6p5-6h7p6-5/6----|
     B|--------------------|
            
    C#|------------------|
    G#|------------------|
GTR  E|------------------|
 1   B|-0-------77777777-| 
    F#|-0-7p6p0----------|
     B|-0-7p6p0----------|

    C#|------------------|
    G#|------------------|
GTR  E|------------------|
 2   B|-0----------------| 
    F#|-0-7p6p0-88888888-|
     B|-0-7p6p0----------|
              
--------------------------------------------

    C#|-------------------------|
    G#|-------------------------|
GTR  E|-------------------------|
 1   B|-0-----0-----0-----0-----| x3
    F#|-0-7p6-0-2/3-0-3/4-0-5p4-|
     B|-0-7p6-0-2/3-0-3/4-0-5p4-|

    C#|---------------------|
    G#|---------------------|
GTR  E|---------------------|
 1   B|-0-----0----77777777-|  
    F#|-0-7p6-0-------------|
     B|-0-7p6-0-------------|

    C#|---------------------|
    G#|---------------------|
GTR  E|---------------------|
 2   B|-0-----0-------------| 
    F#|-0-7p6-0----88888888-|
     B|-0-7p6-0-------------|

    C#|-------------------------|
    G#|-------------------------|
GTR  E|-------------------------|
1+2  B|-0-----0-----0-----0-----| x3
    F#|-0-7p6-0-2/3-0-3/4-0-5p4-|
     B|-0-7p6-0-2/3-0-3/4-0-5p4-|

    C#|---------------------|
    G#|---------------------|
GTR  E|---------------------|
 1   B|-0-----0----77777777-|  
    F#|-0-7p6-0-------------|
     B|-0-7p6-0-------------|

    C#|---------------------|
    G#|---------------------|
GTR  E|---------------------|
 2   B|-0-----0-------------| 
    F#|-0-7p6-0----88888888-|
     B|-0-7p6-0-------------|

Play section x2
------------------------------------------------------

    C#|----------------------------------|
    G#|----------------------------------|
GTR  E|----------------------------------| 
 1   B|-10101010101010101010101010101010-|
    F#|----------------------------------|
     B|----------------------------------|

    C#|----------------------------------|
    G#|------(11s, not 1s)---------------|
GTR  E|----------------------------------|
 2   B|----------------------------------| 
    F#|-11111111111111111111111111111111-|
     B|----------------------------------|

----------------------------------------------------------------

    C#|-------------------------|
    G#|-------------------------|
GTR  E|-------------------------|
 1   B|-1-1-1-1-1-1-1-1-1-1-1-1-| 
    F#|-1-1-1-1-1-1-1-1-1-1-1-1-|
     B|-1-1-1-1-1-1-1-1-1-1-1-1-|

    C#|-------------------------------|
    G#|-------------------------------|
GTR  E|-----------------8\7-7-7-7/8-8-|
 2   B|-1-1-1-1-1-1-1-1---------------| 
    F#|-1-1-1-1-1-1-1-1-6\5-5-5-5/6-6-|
     B|-1-1-1-1-1-1-1-1---------------|
        
    C#|--------------| 
    G#|--------------|
GTR  E|-------5-4----|
 1   B|-4-3-6-----5--| 
    F#|--------------|
     B|--------------| 

    C#|--------------| 
    G#|-------6-5----|
GTR  E|-4-3-7-----5--| 
 2   B|--------------| 
    F#|--------------|
     B|--------------|
        
    C#|----------------------------------------------------------|
    G#|-----3-----3-----3----------------------------------------|
GTR  E|-----6-----6-----6----------------------------------------|
1+2  B|----------------------------------------0-1-0-1-0-1/3-3/4-|
    F#|-0-0---0-0---0-0---1-0-1-3------4-3-----0-1-0-1-0-1/3-3/4-|
     B|-0-0---0-0---0-0---1-0-1-3--0h2-----4-3-0-1-0-1-0-1/3-3/4-|
        P M   P M   P M             

repeat section x2
---------------------------------------------------------------

    C#|-------------------------|
    G#|-------------------------|
GTR  E|-------------------------|
 1   B|-1-1-1-1-1-1-1-1-1-1-1-1-| 
    F#|-1-1-1-1-1-1-1-1-1-1-1-1-|
     B|-1-1-1-1-1-1-1-1-1-1-1-1-|

    C#|-----------------------------------------|
    G#|-----------------------------------------|
GTR  E|---------5-5-5-5-5-5-5-5-7-7-7-7-7-7-7-7-|
 2   B|-1-1-1-1---------------------------------| 
    F#|-1-1-1-1-3-3-3-3-3-3-3-3-5-5-5-5-5-5-5-5-|
     B|-1-1-1-1---------------------------------|

    C#|--------------| 
    G#|--------------|
GTR  E|-------5-4----|
 1   B|-4-3-6-----5--| 
    F#|--------------|
     B|--------------| 

    C#|--------------| 
    G#|-------6-5----|
GTR  E|-4-3-7-----5--| 
 2   B|--------------| 
    F#|--------------|
     B|--------------|

    C#|-------------------|
    G#|-----3-----3-----3-|
GTR  E|-----6-----6-----6-|
1+2  B|-------------------|
    F#|-0-0---0-0---0-0---|
     B|-0-0---0-0---0-0---|
        P M   P M   P M 

    C#|---------|
    G#|---------|
GTR  E|---------|
1+2  B|-1-0-1-3-| x4
    F#|-1-0-1-3-|
     B|-1-0-1-3-|

    C#|------------------|
    G#|------------------|
GTR  E|------------------|
1+2  B|-----PH--------PH-| x2
    F#|-----4-3-------2--|
     B|-0-3-----4-0-3----|
        P M

    C#|---------------------------|
    G#|---------------------------|
GTR  E|---------------------------|
1+2  B|-----PH--------1-1-1-1-0-4-| 
    F#|-----4-3-------1-1-1-1-0-4-|
     B|-0-3-----4-0-3-1-1-1-1-0-4-|
        P M

    C#|--------------------------------|
    G#|--------------------------------|
GTR  E|--------------------------------|
1+2  B|-----PH--------1--1--1--1\0-1/3-| x4
    F#|-----4-3-------1--1--1--1\0-1/3-|
     B|-0-3-----4-0---1--1--1--1\0-1/3-|
        P M

    C#|-------------------------|
    G#|-------------------------|
GTR  E|-------------------------|
 1   B|-1-1-1-1-1-1-1-1-1-1-1-1-| 
    F#|-1-1-1-1-1-1-1-1-1-1-1-1-|
     B|-1-1-1-1-1-1-1-1-1-1-1-1-|

    C#|-------------------------------|
    G#|-------------------------------|
GTR  E|-----------------8\7-7-7-7/8-8-|
 2   B|-1-1-1-1-1-1-1-1---------------| 
    F#|-1-1-1-1-1-1-1-1-6\5-5-5-5/6-6-|
     B|-1-1-1-1-1-1-1-1---------------|
        
    C#|-------------------------| 
    G#|-------------------------|
GTR  E|-------5-4---------5-4---|
 1   B|-3-2-5-----5-3-2-5-----2-|  
    F#|-------------------------|
     B|-------------------------| 

    C#|-------------------------| 
    G#|-------5-4---------5-4---|
GTR  E|-3-2-5-----4-3-2-5-----2-| 
 2   B|-------------------------| 
    F#|-------------------------|
     B|-------------------------|

END
comments
We did not receive enough feedback on this tab! Please rate:
print report bad tab
1 2 3 4 5
I want to post or [tab]
guest
You may want to rate the tab now too:
select rating
Please do not post tabs as comments. Select "correction" instead!