Oops, an error
Loading. Please wait.

Shes A Movie Produced Masterpiece Tab

78 views 1 this week
2 commentsread comments
1 2 3 4 5
excellent!
x 1
Autoscroll
+/-
esc
set tempo
stop
Contributor
Difficulty
Tuning
advanced
B F# B E G# C#
WARNING: You are trying to view
                                    content from Ultimate-Guitar.com
                                    in an unauthorized application,
                                    which is prohibited.

                                    Please use an official Ultimate
                                    Guitar Tabs application for iPhone,
                                    iPad or Android to access legitimate
                                    chords, guitar, bass, and drum tabs
                                    from Ultimate-Guitar.com database.

                                    Type "ultimate guitar tabs" in Apple
                                    App Store's or Android Market's
                                    search to find the application.
EIGHTEEN VISIONS - SHE'S A MOVIE PRODUCED MASTERPIECE

    C#|---------------------------------------------------------------|
    D#|---------------------------------------------------------------|
GTR  E|---------------------------------------------------------------|
1+2  B|-2--5--1--4--1-4-2--5--1--4--1-4-2--5--1--4--1-4-2--0-0-1--0-0-| x2
    F#|-2--5--1--4--1-4-2--5--1--4--1-4-2--5--1--4--1-4-2--0-0-1--0-0-|
     B|-2--5--1--4--1-4-2--5--1--4--1-4-2--5--1--4--1-4-2--0-0-1--0-0-|
                                                           P M    P M

    C#|------------------------------------------|
    D#|------------------------------------------|
GTR  E|------------------------------------------|
1+2  B|------------------------------------------|
    F#|--------------------------0-3-2---2-1-----|
     B|-0-1-1-0-1-1-0-1-1-0-1-1--0-----3-----2-1-| 
                                PM

    C#|------------------------------------|
    D#|------------------------------------|
GTR  E|------------------------------5*-5*-|
1+2  B|------------------------------------|
    F#|------------------0-0-0-0-0-0-------|
     B|-0-1--4-0-1-0-1-0-2-2-2-2-0-0-------|
                         P M P M P M

    C#|-----------------------------------------|
    D#|-----------------------------------------|
GTR  E|-----------------------------------------|
1+2  B|-----------------------------------------|
    F#|---------------------------3-2---2-1-----|
     B|-1-0-0-1-0-4-0-1-0-4-0-1-0-----3-----2-1-|
                                  P H   P H

    C#|-----------------------------------------------------|
    D#|-----------------------------------------------------|
GTR  E|-----------------------------------------------------|
1+2  B|-----------------------------------------------------|
    F#|-----------------------0-0-0-0-0-0-0-0-0-0-0-0-0-0-0-|
     B|-0-1-0-1-4-0-1-0-1-0-1-2-2-2-2-2-2-2-2-2-2-2-2-2-2-2-| 
                              P M P M P M P M P M P M P MPM    

    C#|--------------------------------------------------|
    D#|--------------------------------16-16-15-16-16-15-|
GTR  E|-------15---------15---------15-15-15-15-15-15-15-|
 1   B|-------16---------16---------16-------------------|
    F#|-0-0-0-14---0-0-0-14---0-0-0-14-------------------|
     B|-0-0-0------0-0-0------0-0-0----------------------|
        PMP M      PMP M      PMP M

    C#|----------|
    D#|----------|
GTR  E|-------15-|
1+2  B|-------16-| x16
    F#|-0-0-0-14-|
     B|-0-0-0----|   
        PMP M

    C#|---------------------|
    D#|---------------------|
GTR  E|---------------------|
 1   B|---------------------|
    F#|-2222-1111-----------|
     B|-----------4444-2222-|

    C#|------------------------------------------------------------|
    D#|------------------------------------------------------------|
GTR  E|------------------------------------------------------------|
1+2  B|------------------------------------------------------------| x4
    F#|-1-1-2-1--2-1-1-1-2-1--2-1-1-1-2-1--2-1-2222-1111-----------|
     B|-1-1-2-1--2-1-1-1-2-1--2-1-1-1-2-1--2-1-----------4444-2222-|
                 P M          P M          P M 

    C#|------- x3 --------|---------------------|
    D#|-------------------|---------------------|
GTR  E|-------------------|---------------------|
 1   B|-0--1--2--0--------|---------------------|
    F#|-0--1--2--0--2-1-0-|-2222-1111-----------|
     B|-0--1--2--0--2-1-0-|-----------4444-2222-|
                    P M PM  

    C#|------- x3 ---------|---------------------|
    D#|--------------------|---------------------|
GTR  E|--------------------|-4444-3333-----------|
 2   B|-0--1--2--0---------|-----------4444-2222-|
    F#|-0--1--2--0--2-1--0-|---------------------|
     B|-0--1--2--0--2-1--0-|---------------------|
                    P M PM   

    C#|-------------------------------------------------------------|
    D#|-------------------------------------------------------------|
GTR  E|-------------------------------------------------------------|
1+2  B|-0--1--2--0---------0--1-2--0-------0-------0--1--2--0--1--2-|
    F#|-0--1--2--0--2-1-0--0--1-2--0-2-1-0-0-2-1-0-0--1--2--0--1--2-|
     B|-0--1--2--0--2-1-0--0--1-2--0-2-1-0-0-2-1-0-0--1--2--0--1--2-|
                    PMP M            PMP M   PMP M                  

    C#|---------------------|
    D#|---------------------|
GTR  E|---------------------|
1+2  B|---------------------|
    F#|-2222-1111-----------|
     B|-----------4444-2222-|

    C#|------- x3 ---------|---------------------|
    D#|--------------------|---------------------|
GTR  E|--------------------|---------------------|
1+2  B|-0--1--2--0---------|---------------------|
    F#|-0--1--2--0--2-1--0-|-2222-1111-----------|
     B|-0--1--2--0--2-1--0-|-----------4444-2222-|
                    P M PM  

    C#|-------------------------------------------------------------|
    D#|-------------------------------------------------------------|
GTR  E|-------------------------------------------------------------|
1+2  B|-0--1--2--0---------0--1-2--0-------0-------0--1--2--0--1--2-|
    F#|-0--1--2--0--2-1-0--0--1-2--0-2-1-0-0-2-1-0-0--1--2--0--1--2-|
     B|-0--1--2--0--2-1-0--0--1-2--0-2-1-0-0-2-1-0-0--1--2--0--1--2-|
                    PMP M            PMP M   PMP M 

    C#|---------------------|
    D#|---------------------|
GTR  E|---------------------|
 1   B|---------------------| x4
    F#|-2222-1111-----------|
     B|-----------4444-2222-|

    C#|---------------------|
    D#|---------------------|
GTR  E|-4444-3333-----------|
 2   B|-----------4444-2222-| x4
    F#|---------------------|
     B|---------------------|

    C#|---- x3 ---------|-----------|
    D#|-----------------|-----------|
GTR  E|-4-----4-----4/5-|-5555-9999-|
 1   B|-3-----3-----3/4-|-4444-8888-|
    F#|-2-000-2-000-2/3-|-3333-7777-|
     B|---000---000-----|-----------|
          P M   P M

    C#|---- x3 ---------|-----------|
    D#|-----------------|-----------|
GTR  E|-4-----4-----4/5-|-5555-9999-|
 1   B|-3-----3-----3/4-|-4444-8888-|
    F#|-2-000-2-000-2/3-|-3333-7777-|
     B|---000---000-----|-----------|
          P M   P M
               
    C#|-----------------------------|
    D#|-----------------------------|
GTR  E|-------------------5555-9999-|
 2   B|-0-----------------4444-8888-|
    F#|-0-----------------3333-7777-|
     B|-0---------------------------|  

    C#|---- x3 ---------|-----------|
    D#|-----------------|-----------|
GTR  E|-4-----4-----4/5-|-5555-9999-|
 1   B|-3-----3-----3/4-|-4444-8888-| x2
    F#|-2-000-2-000-2/3-|-3333-7777-|
     B|---000---000-----|-----------|
          P M   P M

    C#|-----------------|-----------|
    D#|-----------------|-----------|
GTR  E|-6p5-------------|-5555-9999-|
 2   B|------4h5--------|-4444-8888-| x2
    F#|-----------3h4---|-3333-7777-|
     B|-----------------|-----------| 

    C#|-------------------------------------|
    D#|-------------------------------------|
GTR  E|-------------------------------------|
1+2  B|-0--3--5--0--3--7-0--3--5--0--3--7-7-|
    F#|-0--3--5--0--3--7-0--3--5--0--3--7-7-|
     B|-0--3--5--0--3--7-0--3--5--0--3--7-7-|  

    C#|------ x3 ----------|-------------------|
    D#|--------------------|-------------------|
GTR  E|--------------------|-------------------|
 1   B|--------------------|-22222222-00000000-| x2
    F#|-0--3--5--0--3--5-5-|-------------------|
     B|-0--3--5--0--3--5---|-------------------|  
        P  M  P  M  P  M

    C#|------ x3 ----------|-------------------|
    D#|--------------------|-------------------|
GTR  E|--------------------|-------------------|
 2   B|--------------------|-------------------| x2
    F#|-0--3--5--0--3--5-5-|-22222222-00000000-|
     B|-0--3--5--0--3--5---|-------------------|  
        P  M  P  M  P  M

    C#|-----------------------------|
    D#|-----------------------------|
GTR  E|------------10---------------|
1+2  B|-14----------------12--------| x2
    F#|-----------------------------|
     B|-----------------------------|  

    C#|--------------------------------------------------------------------|
    D#|-12121212121212121212121212121212-1313131313131313-1010101010101010-|
GTR  E|--------------------------------------------------------------------|
1+2  B|-9-9-9-9-9-9-9-9-9-9-9-9-9-9-9-9--1010101010101010-7-7-7-7-7-7-7-7--| 
    F#|--------------------------------------------------------------------|
     B|--------------------------------------------------------------------|   

    C#|--------------------------------------------------------------------|
    D#|-12121212121212121212121212121212-1313131313131313-1010101010101010-|
GTR  E|--------------------------------------------------------------------|
 1   B|-9-9-9-9-9-9-9-9-9-9-9-9-9-9-9-9--1010101010101010-7-7-7-7-7-7-7-7--| 
    F#|--------------------------------------------------------------------|
     B|--------------------------------------------------------------------| 

    C#|--------------------------------------------------------------------|
    D#|--------------------------------------------------------------------|
GTR  E|-10\9-9-9-9-9-9-9-9-9-9-9-9-9-9-9-1010101010101010-1111111111111111-|
 2   B|--------------------------------------------------------------------|
    F#|-8-\7-7-7-7-7-7-7-7-7-7-7-7-7-7-7-8-8-8-8-8-8-8-8--9-9-9-9-9-9-9-9--|
     B|--------------------------------------------------------------------| 

    C#|--------- x2 -----|--------------------------------------|
    D#|------------------|--------------------------------------|
GTR  E|-9-----9-----9----|-10-----10-----10----7-----7-----7----|
1+2  B|------------------|--------------------------------------|
    F#|-7-000-7-000-7-00-|-8--000-8--000-8--00-5-000-5-000-5-00-|
     B|---000---000---00-|----000----000----00---000---000---00-|
          P M   P M   PM      P M    P M    PM   P M   P M   PM

    C#|-------- x2 ------|---------------------------------|
    D#|------------------|---------------------------------|
GTR  E|-9-----9-----9----|-10-----10-----10----------------|
1+2  B|------------------|---------------------------------|
    F#|-7-000-7-000-7-00-|-8--000-8--000-8--00-3--4--6--0--|
     B|---000---000---00-|----000----000----00-3--4--6--0--|
          P M   P M   PM     P M    P M    PM

    C#|-------------------------|
    D#|-------------------------|
GTR  E|-------------------------|
 1   B|-2----2----2--2--2--2----|
    F#|-2----2----2--2--2--2----|
     B|-2----2----2--2--2--2/14-|

    C#|------------------|
    D#|------------------|
GTR  E|------------------|
 2   B|------------------|
    F#|------------------|
     B|-2222222222222222-| 
        PMPMPMPMPMPMPMPM

    C#|---------------------------- x2 -----------------------------------|
    D#|-------------------------------------------------------------------|
GTR  E|-------------------------------------------------------------------|
1+2  B|-------------------------------------------------------------------| 
    F#|-----------------------------------------------------------3-4-6-0-|
     B|-22222222223366442222222222336644-333333333333333333333333-3-4-6-0-| 
        PMPMPMPMPMPMPMPMPMPMPMPMPMPMPMPM PMPMPMPMPMPMPMPMPMPMPMPM 

    C#|-------------|
    D#|-------------|
GTR  E|-------------|
1+2  B|-------------| x3
    F#|-3--4--6--0--|
     B|-3--4--6--0--| 

    C#|-----------|
    D#|-----------|
GTR  E|-----------|
 1   B|---6-------| x7
    F#|-8---8-5---|
     B|---------7-|

    C#|-----------|
    D#|-----------|
GTR  E|-----------|
 2   B|---6-------| x7
    F#|-8---8-5---|
     B|---------0-|

    C#|---------------------- 1,3 --------------------------------|
    D#|-----------------------------------------------------------|
GTR  E|-----------------------------------------------------------|
1+2  B|-9-----9-----9-----9-----4--1-3-----3-----3-----3-----6--6-| 
    F#|-7-0-0-7-0-0-7-0-0-7-0-0-4--1-3-3-3-3-3-3-3-3-3-3-3-3-6--6-|
     B|---0-0---0-0---0-0---0-0-4--1-3-3-3-3-3-3-3-3-3-3-3-3-6--6-|
          P M   P M   P M   P M        P M   P M   P M   P M 
    
    C#|---------------------- 2,4 ----------------------------------------|
    D#|-------------------------------------------------------------------|
GTR  E|-------------------------------------------------------------------|
1+2  B|-9-----9-----9-----9-----4--1-3-----3-----3-----3-------6----------| 
    F#|-7-0-0-7-0-0-7-0-0-7-0-0-4--1-3-3-3-3-3-3-3-3-3-3-3-3-8---8-5------|
     B|---0-0---0-0---0-0---0-0-4--1-3-3-3-3-3-3-3-3-3-3-3-3---------7--0-|
          P M   P M   P M   P M        P M   P M   P M   P M 

    C#|----------------------|
    D#|----------------------|
GTR  E|----------------------|
1+2  B|-1--1--2--2--0--0--4--|
    F#|-1--1--2--2--0--0--4--|
     B|-1--1--2--2--0--0--4--|

    C#|--------------------------------------------------------------------|
    D#|--------------------------------------------------------------------|
GTR  E|--------------------------------------------------------------------|
 1   B|--------------------------------------------------------------------|
    F#|-0-0-0--0-0-0--0-0--0-0-0-0---------------------------3-2---2-1-----|
     B|-0-0-0--0-0-0--0-0--0-0-0-0-0-1-1-0-1-4-0-1-0-1-0-1-0-----3-----2-1-|
        P M PM P M PM P M  P M P M

    C#|-----------------------------------------------------------------|
    D#|--------------------------8--------------------------------------|
GTR  E|--------------------------11-------------------------------------|
 2   B|-----------------------------------------------------------------|
    F#|-0-0-0--0-0-0--0-0--0-0-0--------------------------3-2---2-1-----|
     B|-0-0-0--0-0-0--0-0--0-0-0----0-1-1-0-1-4-0-1-0-1-0-----3-----2-1-|
        P M PM P M PM P M  P M PM

    C#|-----------------------------------------------------------|
    D#|-----------------------------------------------------------|
GTR  E|-----------------------------------------------------------|
 1   B|-----------------------------------------------------------|
    F#|-0-0-0--0-0-0--0-0--0-0-0-0--------------------------------|
     B|-0-0-0--0-0-0--0-0--0-0-0-0-2-0-1-0-2-4----2-0-1-0-2-4-----|
        P M PM P M PM P M  P M P M

    C#|-----------------------------------------------------------|
    D#|--------------------------8--------------------------------|
GTR  E|--------------------------11-------------------------------|
 2   B|-----------------------------------------------------------|
    F#|-0-0-0--0-0-0--0-0--0-0-0----------------------------------|
     B|-0-0-0--0-0-0--0-0--0-0-0----2-0-1-0-2-4----2-0-1-0-2-4----|
        P M PM P M PM P M  P M PM

    C#|-----------------------------------------------------------------|
    D#|-----------------------------------------------------------------|
GTR  E|-----------------------------------------------------------------|
 1   B|-----------------------------------------------------------------|
    F#|-0-0-0--0-0-0--0-0--0-0-0-0--------------------------3-2---2-1---|
     B|-0-0-0--0-0-0--0-0--0-0-0-0-2-0-1-0-2-4--0-2-0-1-0-2-----3-----2-|
        P M PM P M PM P M  P M P M

    C#|------------------------------------------------------------------|
    D#|--------------------------8---------------------------------------|
GTR  E|--------------------------11--------------------------------------|
 2   B|------------------------------------------------------------------|
    F#|-0-0-0--0-0-0--0-0--0-0-0-----------------------------3-2---2-1---|
     B|-0-0-0--0-0-0--0-0--0-0-0----2-0-1-0-2-4--0-2-0-1-0-2-----3-----2-|
        P M PM P M PM P M  P M PM

    C#|-----------------------------------------------------------|
    D#|-----------------------------------------------------------|
GTR  E|-----------------------------------------------------------|
 1   B|-----------------------------------------------------------|
    F#|-0-0-0--0-0-0--0-0--0-0-0-0--------------------------------|
     B|-0-0-0--0-0-0--0-0--0-0-0-0-2-0-1-0-2-4----2-0-1-0-2-4-----|
        P M PM P M PM P M  P M P M

    C#|-----------------------------------------------------------|
    D#|--------------------------8--------------------------------|
GTR  E|--------------------------11-------------------------------|
 2   B|-----------------------------------------------------------|
    F#|-0-0-0--0-0-0--0-0--0-0-0----------------------------------|
     B|-0-0-0--0-0-0--0-0--0-0-0----2-0-1-0-2-4----2-0-1-0-2-4----|
        P M PM P M PM P M  P M PM

    C#|----------------------------------------------|
    D#|----------------------------------------------|
GTR  E|----------------------------------------------|
 1   B|---0----------------0-------------------------|
    F#|-0-0----------------0------------5------4-----|
     B|-0-0----------------0--------------6-5----5-4-|
       PM

    C#|----------------------------------------------|
    D#|----------------------------------------------|
GTR  E|----------------------------------------------|
 2   B|---0---------------0--------------------------|
    F#|-0-0---PICK SLIDE--0-------------5------4-----|
     B|-0-0---------------0---------------6-5----5-4-|
       PM

    C#|----- x3 -------|--------------|
    D#|----------------|--------------|
GTR  E|----------------|--------------|
1+2  B|-1----1/4-------|--------------| x4
    F#|-1--0-1/4-0-0-0-|-5------4-----|
     B|-1--0-1/4-0-0-0-|---6-5----5-4-|
           PM    PMP M   P H PH P H PH
                
comments
We did not receive enough feedback on this tab! Please rate:
print report bad tab
1 2 3 4 5
2 comments total.
0 reply
straightedge636 wrote on September 1 2013, 07:54 pm

please create more tabs for Vainty and Until The Ink Runs Out. great work!

0 reply
blackxfuture wrote on September 3 2013, 07:42 am

I'll see what I can do dude :)

I want to post or [tab]
guest
You may want to rate the tab now too:
select rating
Please do not post tabs as comments. Select "correction" instead!