Oops, an error
Loading. Please wait.

Dead Knites Rite Tab

ver1
ver1

Whole song

Interactive

More versions @911Tabs.com
375 views 3 this week
no commentswrite comment
1 2 3 4 5
please rate
Autoscroll
+/-
esc
set tempo
stop
Contributor
Difficulty
intermediate
WARNING: You are trying to view
                                    content from Ultimate-Guitar.com
                                    in an unauthorized application,
                                    which is prohibited.

                                    Please use an official Ultimate
                                    Guitar Tabs application for iPhone,
                                    iPad or Android to access legitimate
                                    chords, guitar, bass, and drum tabs
                                    from Ultimate-Guitar.com database.

                                    Type "ultimate guitar tabs" in Apple
                                    App Store's or Android Market's
                                    search to find the application.
Einherjer - Dead Knight's Rite 
Album: Blot 
tabbed by: Rade Deletic (mxtabs1@hotmail.com) 
 

Standard tuning 
 
~ = Vibrato 
. = palm mute 
ph = pinch harmonic 
 
Riff 1 
		  x2 
|------------------------------------| 
|------------------------------------| 
|------------------------------------| 
|-2-4-55-2-4---22---2-4-55-2-4---2~--| Gtr 1 
|------------5---2------------5------| 
|------------------------------------| 
| 
|------ 
|------ 
|------ 
|------ x 33   Gtr 2 
|-2---- 
|-0---- 
  . 
 
Riff 2  @ :19 
|--------------------------------------------| 
|--------------------------------------------| 
|-2-4-55-2-4---22---2-4-55-2-4--2~-----------|  Gtr 1 
|------------5---2------------5--------------| 
|--------------------------------------------| 
|--------------------------------------------| 
|                                            | 
|--------------------------------------------| 
|--------------------------------------------| 
|--------------------------------------------| 
|-2--------------2-2--2--------------2-2~----|  Gtr 2 
|-0-00-00-00-00-0-0-0-0-00-00-00-00-0-0------| 
|--------------------------------------------| 
    .. .. .. .. . .     .. .. .. .. . . 
 
 
Riff 1b (Variating Leads..) @ :24 
|-----------------------------------| 
|-----------------------------------| 
|--------------------------4--------| 
|-2-4-55-2-4---22---2-4-55---5-4-2~-| Gtr 1 
|------------5---2------------------| 
|-----------------------------------| 
| 
|------ 
|------ 
|------ 
|------ x 8  Gtr 2 
|-2---- 
|-0---- 
  . 
 
 
Riff 1 
	    x2 (lead) 
|-----------------------------------| 
|-----------------------------------| 
|-----------------------------------| 
|-2-4-55-2-4---22---2-4-55-2-4---2~-| Gtr 1 
|------------5---2------------5-----| 
|-----------------------------------| 
| 
|------ 
|------ 
|------ 
|------ x 16   Gtr 2 
|-2---- 
|-0---- 
  . 
 
Riff 3          :39 
|-------------------------------------| 
|-----5--4--5--7~---------------------| 
|-5~----------------------------------| 
|-------------------------------------| x 2  Gtr 1 
|------------------------2--2--2--2---| 
|------------------------0--0--0--0---| 
|                                     | 
|-------------------------------------| 
|-------------------------------------| 
|-------------------------------------| 
|-2--5-5-5-5-4--4-4-4-4---------------| x 2  Gtr 2 
|-0--3-3-3-3-2--2-2-2-2--2--2--2--2---| 
|------------------------0--0--0--0---| 
 
 
Riff 1 x 16 :49 
Riff 3 x 2   :58 
 
Riff 4      1:07 
|----------------------------------------| 
|----------------------------------------| 
|----------------------------------------| 
|---2----2----2----2---------------------| both Gtrs 
|-000--000--000--000----222-222-222-22---| 
|-----------------------000-000-000-00---| 
  ..   ..   ..   ..     ... ... ... .. 
 
|-------------------------------------------------------------------------------------| 
|-------------------------------------------------------------------------------------| 
|-------------------------------------------------------------------------------------|   Gtr 1 
|-------------------------------------------------------------------------------------|  
|------2~-3-2~---2~-3-2~------------------------12121212121010101010999997777755555---| 
|----0---------0------------55555888881212121212--------------------------------------| 
|                           .......................................................   |   
|	   x2                                                                         | 
|-|--------------------|--------------------------------------------------------------| 
|-|--------------------|--------------------------------------------------------------| 
|-|--------------------|--------------------------------------------------------------|   Gtr 2 
|-|--------------------|--------------------------------------------------------------| 
|-|--------------------|------------------------12121212121010101010999997777755555---| 
|-|00000333335555577777|----55555888881212121212--------------------------------------| 
   ....................     ....................................................... 
 
Riff 5  @ 1:22 
|--------------------------------------------------------------------------- 
|--------------------------------------------------------------------------- 
|---------------------------------------------------------------------------    Gtr 1 
|-------------7~-----5-7p5-------------------------------------------------- 
|-7~------------------------7~-------7~-------8-8~-----5-7-8~--------------- 
|--------------------------------------------------------------------------- 
| 
|--------------------------------------------------------------------------- 
|--------------------------------------------------------------------------- 
|-------------22-------2----------------------------------------------------    Gtr 2 
|-22-------2--00-0-0-0-0--22-------2-------------------------77-------7-----   
|-00-0-0-0-0--------------00-0-0-0-0--5-5-5-5-5-5-5-5-5-5-7--55-5-5-5-5----- 
|-------------------------------------3-3-3-3-3-3-3-3-3-3-5----------------- 
   . . . .     .  . . .    . . . .    . . . . . . . . . . .   . . . .  
 
|---------------------------------------------------------------------------------| 
|---------------------------------------------------------------------------------| 
|---------------------------------------------------------------------------------|  Gtr 1 
|-5~-------------------------------------------------------------------7~---------| 
|------8-7--5~------------5--7--8--------7~---------------5~----------------------| 
|----------------------6----------------------------------------------------------| 
|                                                                                 | 
|---------------------------------------------------------------------------------| 
|---------------------------------------------------------------------------------| 
|---------------------------------------------------------------------------------|  Gtr 2 
|-55-------5-----------------------77-------7--------------------------77-------7-|   
|-33-3-3-3-3--55-------5--5--5--5--55-5-5-5-5--77-------7--55-------5--55-5-5-5-5-| 
|-------------33-3-3-3-3--3--3--3--------------55-5-5-5-5--33-3-3-3-3-------------| 
   . . . .     . . . .    .  .  .   . . . .     . . . .     . . . .     . . . .  
 
Fill 1 @ 1:45 
------------------------ 
------------------------ 
------------------------ 
---------77-7-7-7-7-77-- 
--5-(5)--55-5-5-5-5-55-- 
--3-(3)----------------- 
         .. . . . . .. 
 
Riff 1 x 16 @ 1:50 
Riff 3 x 2  @ 2:00 
Riff 1 x 16 @ 2:09 
Riff 3 x 2  @2:19 
Riff 4 x 1  @2:29 
Riff 5 x 1  @2:43 
 
Riff 6 @3:06 (missing leads) 
------------------------------------------------------------------------------- 
------------------------------------------------------------------------------- 
------------------------------------------------------------------------------- 
----------------------------------77-77-77-77-777-77-77-77-77-777-------------- x 2  Both Gtrs 
-55-55-55-55-555-55-55-55-55-555--55-55-55-55-555-55-55-55-55-555--7--7-7-7-7-- 
-33-33-33-33-333-33-33-33-33-333-----------------------------------5--5-5-5-5-- 
 .. .. .. .. ... .. .. .. .. ...  .. .. .. .. ... .. .. .. .. ...     . . . . 
 
Riff 7 @ 3:30 (missing leads) 
---------------------------------------------------------------------------------------- 
---------------------------------------------------------------------------------------- 
---------------------------------------------------------------------------------------- 
-55-55-55-55-555-55-55-55-55-555-------------------------------------------------------- 
-33-33-33-33-333-33-33-33-33-333--55-55-55-55-555-55-55-55-55-555--4---4-4-4-4-4-4-4-4-- 
----------------------------------33-33-33-33-333-33-33-33-33-333--2---2-2-2-2-2-2-2-2-- 
 .. .. .. .. ... .. .. .. .. ...  .. .. .. .. ... .. .. .. .. ...      . . . . . . . . 
 
Riff 1 x 16 
Riff 3 x 2 
Riff 1 x 16 
Riff 3 x 2  
Riff 4 x 1 
Riff 5 x 1 
 
Riff 8 @ 5:01 
|----------------------------------------------------------------------------------- 
|----------------------------------------------------------------------------------- 
|---------------------------------7~--------------------------8~---5-----5----3~---- 
|-5~------------------5~----4~------8--5~--7-8-7-----------8----------5------------- 
|------------------------------------------------5--5~------------------------------ 
|----------------------------------------------------------------------------------- 
| 
|----------------------------------------------------------------------------------- 
|----------------------------------------------------------------------------------- 
|----------------------------------------------------------------------------------- 
|------------------------------------------------7-77-77-77-77-77-5-55-55-55-55-55-- 
|-5-5-5-5-5-5-5-5-55-55-55-55-5---55-55-55-55-55-5-55-55-55-55-55-3-33-33-33-33-33-- 
|-3-3-3-3-3-3-3-3-33-33-33-33-3---33-33-33-33-33------------------------------------ 
  . . . . . . . . .. .. .. ..     .. .. .. .. ..   .. .. .. .. ..   .. .. .. .. .. 
 
|-----------------------------------------------------------------------------------| 
|-----------------------------------------------------------------------------------| 
|---(3)~----------------------------------------------------------------------------| 
|--------------------7-5-7-8-10-8~-7-8-7---5-7-8-10-5-7--12------------8-8~---------| 
|---------------------------------------5~-----------------13-10-----5--------------| 
|---------------------------------------------------------------10-3----------------| 
|                                                                                   | 
|-----------------------------------------------------------------------------------|       --- 
|-----------------------------------------------------------------------------------|       --- 
|-----------------------------------------------------------------------------------|       --- 
|--------------------------------7-7-7-77--55---5-----------------------------------|   End:--- 
|-5-55-55-55-55--5--5--7-5-5-5-5-5-5-5-55--33---3--55--5--5--5--5--55-------(5)-----|       -5- 
|-3-33-33-33-33--3--3--5-3-3-3-3-------------------33--3--3--3--3--33-------(3)-----|       -3- 
    .. .. .. ..          . . . . . . .  .   .      ..  .  .  .  .                            . 
 
comments
We did not receive enough feedback on this tab! Please rate:
print report bad tab
1 2 3 4 5
I want to post or [tab]
guest
You may want to rate the tab now too:
select rating
Please do not post tabs as comments. Select "correction" instead!