Oops, an error
Loading. Please wait.

Wyrd Of The Dead Tab

133 views 1 this week
no commentswrite comment
1 2 3 4 5
please rate
Autoscroll
+/-
esc
set tempo
stop
WARNING: You are trying to view
                                    content from Ultimate-Guitar.com
                                    in an unauthorized application,
                                    which is prohibited.

                                    Please use an official Ultimate
                                    Guitar Tabs application for iPhone,
                                    iPad or Android to access legitimate
                                    chords, guitar, bass, and drum tabs
                                    from Ultimate-Guitar.com database.

                                    Type "ultimate guitar tabs" in Apple
                                    App Store's or Android Market's
                                    search to find the application.
Song:Wyrd of the Dead
Artist:Einherjer
Album:Norwegian Native Art
Tuning:E
Tabbed by:Frode Glesnes - vikingmetal@einherjer.com

Key:
/ \=slide
p=pull off
h=hammer on
~=viberato


Intro                      |Keyboard arranged for guitar
E |----------------------------------------------------------------------------|
B |----------------------------------------------------------------------------|
G |--------------------------8-9-11-9-8----------------------------------------|
D |-------------------3-4--------------9-11-7-5-7-8-8-7-8~---------------------|
A |-2--------2-2-2-2--1-2------------------------------------------------------|
E |-0--------0-0-0-0-----------------------------------------------------------|          

RIFF 1a (x 2)
E |----------------------------------------------------------------------------|
B |----------------------------------------------------------------------------|
G |----------------------------------------------------------------------------|
D |-------------3-4-----------------9-------7-------5-------7-7-7-9--9/--------|
A |-2-222-222-221-2---222-222-222-227-222-225-222-223-222-225-5-5-7--7/--------|
E |-0-000-000-00------000-000-000-00--000-00--000-00--000-00-------------------|

RIFF 1b (x 1)
E |----------------------------------------------------------------------------|
B |----------------------------------------------------------------------------|
G |-------------8-9-----------------------11-9---------------------------------|
D |-------------5-6-----------------5-5-5-8--6---------------------------------|
A |-2-222-222-226-7---222-222-222-223-3-3-9--7---222-222-222-22----------------|
E |-0-000-000-00------000-000-000-00-------------000-000-000-00----------------|

RIFF 2a (x 2)
E |----------------------------------------------------------------------------|
B |----------------------------------------------------------------------------|
G |-9/10-10-10-101010/9-9-9-999/10-10-10-101010/9-9------10--------------------|
D |-6/7--7--7--7-7-7-/6-6-6-666/7--7--7--7-7-7-/6-6----9-----------------------|
A |-7/8--8--8--8-8-8-/7-7-7-777/8--8--8--8-8-8-/7-7-10-------------------------|
E |----------------------------------------------------------------------------|

BRIDGE 1 (w/Guitar 1)
E |----------------------------------------------------------------------------|
B |----------------------------------------------------------------------------|
G |----------------------------------------------------------------------------|
D |----------------------------------------------------------------------------|
A |-3-3---------2-2-----------2-2----------------------------------------------|
E |-1-1---------0-0-----------0-0----------------------------------------------|

GUITAR 1
E |----------------------------------------------------------------------------|
B |----------------------------------------------------------------------------|
G |-------------------9--------------------------------------------------------|
D |-----7----------------------7-----------------------------------------------|
A |-8-8---10-8-10-7-7------8-8---10-8-10-7-7-----------------------------------|
E |----------------------------------------------------------------------------|

RIFF 2b (x 4)
E |----------------------------------------------------------------------------|
B |----------------------------------------------------------------------------|
G |----------------------------------------------------------------------------|
D |----------------------------------------------------------------------------|
A |-23-3-3-3332-2-2-2223-3-3-3332-2-2-1----------------------------------------|
E |-01-1-1-1110-0-0-0001-1-1-1110-0-0-3----------------------------------------|

BRIDGE 2 (x 1)
E |----------------------------------------------------------------------------|
B |----------------------------------------------------------------------------|
G |-------11-9-----------------------------------------------------------------|
D |-5-5-5-8--6-----7/-----11-9-------------------------------------------------|
A |-3-3-3-9--7--2--9/--2--9--7-------------------------------------------------|
E |-------------0------0-------------------------------------------------------|

RIFF 1a (x 2)
E |----------------------------------------------------------------------------|
B |----------------------------------------------------------------------------|
G |----------------------------------------------------------------------------|
D |-------------3-4-----------------9-------7-------5-------7-7-7-9--9/--------|
A |-2-222-222-221-2---222-222-222-227-222-225-222-223-222-225-5-5-7--7/--------|
E |-0-000-000-00------000-000-000-00--000-00--000-00--000-00-------------------|

RIFF 1b (x 1)
E |----------------------------------------------------------------------------|
B |----------------------------------------------------------------------------|
G |-------------8-9-----------------------11-9---------------------------------|
D |-------------5-6-----------------5-5-5-8--6---------------------------------|
A |-2-222-222-226-7---222-222-222-223-3-3-9--7---222-222-222-22----------------|
E |-0-000-000-00------000-000-000-00-------------000-000-000-00----------------|

RIFF 2 (x 2)
E |----------------------------------------------------------------------------|
B |----------------------------------------------------------------------------|
G |-9/10-10-10-101010/9-9-9-999/10-10-10-101010/9-9------10--------------------|
D |-6/7--7--7--7-7-7-/6-6-6-666/7--7--7--7-7-7-/6-6----9-----------------------|
A |-7/8--8--8--8-8-8-/7-7-7-777/8--8--8--8-8-8-/7-7-10-------------------------|
E |----------------------------------------------------------------------------|

BRIDGE 1 (w/Guitar 1)
E |----------------------------------------------------------------------------|
B |----------------------------------------------------------------------------|
G |----------------------------------------------------------------------------|
D |----------------------------------------------------------------------------|
A |-3-3---------2-2-----------2-2----------------------------------------------|
E |-1-1---------0-0-----------0-0----------------------------------------------|

GUITAR 1
E |----------------------------------------------------------------------------|
B |----------------------------------------------------------------------------|
G |-------------------9--------------------------------------------------------|
D |-----7----------------------7-----------------------------------------------|
A |-8-8---10-8-10-7-7------8-8---10-8-10-7-7-----------------------------------|
E |----------------------------------------------------------------------------|

RIFF 2b (x 4 w/Guitar 2)                          BRIDGE 3 (both guitars)
E |----------------------------------------------|-----------------------------|
B |----------------------------------------------|-----------------------------|
G |----------------------------------------------|-----------------------------|
D |----------------------------------------------|-----------------------------|
A |-23-3-3-3332-2-2-2223-3-3-3332-2-2-1----------|-3-3-3-3-3-------------------|
E |-01-1-1-1110-0-0-0001-1-1-1110-0-0-3----------|-1-1-1-1-1-------------------|

GUITAR 2
E |----------------------------------------------------------------------------
B |----------------------------------------------------------------------------
G |-----------------------------------------------------------5555-------------
D |-6666665655555522223333----22222222335566335555222233556633----5535---------
A |-----------------------3333-------------------------------------------------
E |----------------------------------------------------------------------------
cont.
E -----------------------------------------------------------------------------|
B -----------------------------------------------------------------------------|
G -----------------------------------------------------------------------------|
D -6666665655555522223333----2222222233556633555522223333332322222222----------|
A -----------------------3333--------------------------------------------------|
E -----------------------------------------------------------------------------|

RIFF 3 (x 8 w/git.3 first round, decreasing tempo final round)
  |Guitar 1                          |Guitar 2 
E |----------------------------------------------------------------------------|
B |----------------------------------------------------------------------------|
G |----------------------------------------------------------------------------|
D |-----------------------------------10-10-10-10-10/12-9-9-9-9-9-9-9-10-10-12-|
A |-3-3-3-3-3/5-2-2-2-2-2-2-2-3-3-5---8--8--8--8--8-/10-7-7-7-7-7-7-7-8--8--10-|
E |-1-1-1-1-1/3-0-0-0-0-0-0-0-1-1-3--------------------------------------------|

GUITAR 3 (x 4)
E |----------------------------------------------------------------------------|
B |----------------------------------------------------------------------------|
G |----------------------------------------------------------------------------|
D |-10---8---6--5--3--11---10---8---6--5---------------------------------------|
A |---11--10--8--7--3---13---11--10--8--7--------------------------------------|
E |----------------------------------------------------------------------------|

LEAD Guitar 1 (w/LEAD Guitar 2)
E |----------------------------------------------------------------------------|
B |----------------------------------------------------------------------------|
G |-/5----------6-5------------------------------------------------------------|
D |-----6-----8-----8-6-6h8p6-5-3h5p3-2----------------------------------------|
A |-------8-7---------------------------/4h6p4-3--/15-13-11h13p11-10-11-13-15~-|
E |----------------------------------------------------------------------------|

LEAD Guitar 2
E |----------------------------------------------------------------------------|
B |----------------------------------------------------------------------------|
G |-------------3--------------------------------------------------------------|
D |-/6--3-----5---6-5-3-3h5p3---------------------/-6-5-3h5p3-2----------------|
A |-------4-3-----------------6-4h6p4-3------------------------4-3-3-----------|
E |-------------------------------------/6h8p6-4-------------------------------|

BRIDGE 4 Guitar 1
E |----------------------------------------------------------------------------|
B |----------------------------------------------------------------------------|
G |----------------------------------------------------------------------------|
D |-5-5--5-5--5-5--5-5--9-9-9--10-8--10------------------------------8-10~-----|
A |-3-3--3-3--3-3--3-3--7-7-7------11--11-10-11-10-8-10-8----8-10-11-----------|
E |-------------------------------------------------------11-------------------|

BRIDGE 4 Guitar 2
E |----------------------------------------------------------------------------|
B |----------------------------------------------------------------------------|
G |----------------------------------------------------------------------------|
D |-5-5--5-5--5-5--5-5--9-9-9--------------------------------------------------|
A |-3-3--3-3--3-3--3-3--7-7-7--3-1---1-----------------------1-3~--------------|
E |--------------------------------4---4-3-4-3-1-3-1-0-1-3-4-------------------|

RIFF 4 (x 2)
E |----------------------------------------------------------------------------|
B |----------------------------------------------------------------------------|
G |-10-10/8-8/10-10/8-8/6-10-5-5-5---------------------------------------------|
D |--------------------------------3--55-55-55-55-999--------------------------|
A |-8--8-/6-6/8--8-/6-6/4-8-/3-3-3----33-33-33-33-777--------------------------|
E |--------------------------------1-------------------------------------------|

RIFF 2b (x 4)                              |Ending 4. time
E |----------------------------------------|------------------------------------|
B |----------------------------------------|------------------------------------|
G |----------------------------------------|------------------------------------|
D |----------------------------------------|------------------------------------|
A |-23-3-3-3332-2-2-2223-3-3-3332-2-2-1----|-3-1--------------------------------|
E |-01-1-1-1110-0-0-0001-1-1-1110-0-0-3----|-----4-33-0-1-----------------------|

GUITAR 2
E |----------------------------------------------------------------------------
B |----------------------------------------------------------------------------
G |-----------------------------------------------------------5555-------------
D |-6666665655555522223333----22222222335566335555222233556633----5535---------
A |-----------------------3333-------------------------------------------------
E |----------------------------------------------------------------------------
cont.
E -----------------------------------------------------------------------------|
B -----------------------------------------------------------------------------|
G ------------------------------------------------------------5-3--------------|
D -6666665655555522223333----222222223355663355552222333333232----6-55-2-3-----|
A -----------------------3333--------------------------------------------------|
E -----------------------------------------------------------------------------|

END Guitar 1
E |----------------------------------------------------------------------------|
B |----------------------------------------------------------------------------|
G |----------------------------------------------------------------------------|
D |-5-5--5-5--5-5--5-5--9-9-9--10-8--10------------------------------8-3-5-----|
A |-3-3--3-3--3-3--3-3--7-7-7------11--11-10-11-10-8-10-8----8-10-11---1-3-3-3-|
E |-------------------------------------------------------11---------------1-1-|

END Guitar 2
E |----------------------------------------------------------------------------|
B |----------------------------------------------------------------------------|
G |----------------------------------------------------------------------------|
D |-5-5--5-5--5-5--5-5--9-9-9-------------------3--5---------------------------|
A |-3-3--3-3--3-3--3-3--7-7-7--3-3-3-3-3-3-3-3--1--3--3--3---------------------|
E |----------------------------1-1-1-1-1-1-1-1--------1--1----------------------|

The End.
comments
We did not receive enough feedback on this tab! Please rate:
1 2 3 4 5
I want to post or [tab]
guest
You may want to rate the tab now too:
select rating
Please do not post tabs as comments. Select "correction" instead!