Oops, an error
Loading. Please wait.

Wish I Stayed Tab

ver4
ver4

Intro

More versions @911Tabs.com
13,381 views 6 this week
1 commentread comment
1 2 3 4 5
accurate
x 7
Autoscroll
+/-
esc
set tempo
stop
Contributor
Difficulty
novice
Hey! There's an official Ultimate Guitar app which is ideal
for learning songs when you're away from computer. Get the app
WARNING: You are trying to view
                                    content from Ultimate-Guitar.com
                                    in an unauthorized application,
                                    which is prohibited.

                                    Please use an official Ultimate
                                    Guitar Tabs application for iPhone,
                                    iPad or Android to access legitimate
                                    chords, guitar, bass, and drum tabs
                                    from Ultimate-Guitar.com database.

                                    Type "ultimate guitar tabs" in Apple
                                    App Store's or Android Market's
                                    search to find the application.

Got this from her live acoustic performance of her song.

http://www.youtube.com/watch?v=iasph5zaDT4

Just kinda watched her play it.

Intro/Verse
e------4-----4-----4-----4-----4-----4-----4--4--0-------------------|
B------5-----5-----5-----5-----5-----5-----5--5--5-------------------|
G--------------------------------------------------------------------|
D--------------------------------------------------------------------|
A---0-----0-----0-----0-----0-----0-----0----------------------------|
E--------------------------------------------------------------------|


e--------------------------------------------------------------------|
B------5-----5-----5-----5-----5-----5------5--5--5------------------|
G------6-----6-----6-----6-----6-----6------6--6--6------------------|
D--------------------------------------------------------------------|
A---4-----4-----4-----4-----4-----4-----4----------------------------|
E--------------------------------------------------------------------|

Chorus

e---7~---11~---4~---4~-----------------------------------------------|
B---7~---11~---5~---5~-----------------------------------------------|
G---9~---13~---6~---6~-----------------------------------------------|
D---9~---13~---6~---6~-----------------------------------------------|
A---7~---11~---4~---0~-----------------------------------------------|
E--------------------------------------------------------------------|

2nd Verse -  Starts with the Intro then does a cool thing with just /                  
the intro notes and plucking them.


3rd Verse - Starts with the Intro then works into chords
e--4~---4~-----------------------------------------------------------|
B--5~---5~-----------------------------------------------------------|
G--6~---6~-----------------------------------------------------------|
D--6~---6~-----------------------------------------------------------|
A--0~---4~-----------------------------------------------------------|
E--------------------------------------------------------------------|

Why Can't we speak another language
one we all agree on
why when men look outside do they see houses
instead of fields they grew from
we are constantly uprooted from them
making us tiresome and fearful
can you get up right now
and endeavor freefall (off)

you can fall if you want to
it's just a matter of how far
you've treasured your home town
you've forgotten where you are
and it will stay with you
til' your mind's been found
and it has been found
wondering around.

Without a skipping rope
A trampoline
A Crafty smoke
they've made a simpler way to give up
it's the simple ways
of getting payed
the carelessness of lieing awake
oh i wish i stayed
I wish i stayed
I wish i stayed

Patterns all arranged in my backround
It's pillars and posts keeping this country on form
letters were all sent with no addresses
so that people can't scuffer
always undercover
why do i always draw triangles
instead of words
it's paint so it serves

you see
I don't own my clothes but i own my mind
And it's not what you've lost
but it's what you'll find
I don't own my clothes but i own my mind
And it's not what you've lost
but it's what you'll find

Without a skipping rope
A trampoline
A crafty smoke
they've made a simpler way to give up
it's the simple ways
of getting payed
the carelessness of lieing awake
I wish I stayed
I wish I stayed

Can you can fall if you want to
It's just a matter of how far
You've treasured your home town
you've forgotten where you are
and it will stay with you
til' your mind's been found
and it has been found
wondering around.

Without a skipping rope
A trampoline
A crafty smoke
they've made a simpler way to give up
it's the simple ways
of getting payed
the carelessness of lieing awake
I wish I stayed
I wish I stayed
comments
print report bad tab
1 comment total.
0 reply
Jake-O22 wrote on October 13 2011, 05:44 am

very good lots of room for you to add your own stuff

I want to post or [tab]
guest
You may want to rate the tab now too:
select rating
Please do not post tabs as comments. Select "correction" instead!