Oops, an error
Loading. Please wait.

Miss Misery Bass Tab

ver1
ver1

Whole song

Interactive

More versions @911Tabs.com
1,767 views 6 this week
no commentswrite comment
1 2 3 4 5
accurate
x 2
Autoscroll
+/-
esc
set tempo
stop
Contributor
Difficulty
novice
WARNING: You are trying to view
                                    content from Ultimate-Guitar.com
                                    in an unauthorized application,
                                    which is prohibited.

                                    Please use an official Ultimate
                                    Guitar Tabs application for iPhone,
                                    iPad or Android to access legitimate
                                    chords, guitar, bass, and drum tabs
                                    from Ultimate-Guitar.com database.

                                    Type "ultimate guitar tabs" in Apple
                                    App Store's or Android Market's
                                    search to find the application.
Standard Tuning
3/4 Time 

                                Verse 1

  1  +  2  +  3  +   1  +  2  +  3  +   1  +  2  +  3  +   1  +  2  +  3  +  
|------------------|------------------|------------------|------------------|
|------------------|------------------|------------------|------------------|
|-5----------------|-3----------------|------------------|------------------|
|------------------|------------------|-6-----------5----|-1----------------|

  1  +  2  +  3  +   1  +  2  +  3  +   1  +  2  +  3  +   1  +  2  +  3  +  
|------------------|------------------|------------------|------------------|
|-3--------------3-|-3-----3-----2\---|------------------|------------------|
|------------------|------------------|------------------|------------------|
|------------------|------------------|-3----------------|(3)---------------|

                               Chorus 1

  1  +  2  +  3  +   1  +  2  +  3  +   1  +  2  +  3  +   1  +  2  +  3  +  
|------------------|------------------|------------------|------------------|
|-3----------------|-2----------------|------------------|------------------|
|------------------|------------------|-5----------------|-3----------------|
|------------------|------------------|------------------|------------------|

  1  +  2  +  3  +   1  +  2  +  3  +   1  +  2  +  3  +   1  +  2  +  3  +  
|------------------|------------------|------------------|------------------|
|------------------|------------------|------------------|------------------|
|------------------|-1----------------|------------------|------------------|
|-3----------------|------------------|-1--------------1-|-1-----1-----1----|

                               Bridge 1

  1  +  2  +  3  +   1  +  2  +  3  +   1  +  2  +  3  +   1  +  2  +  3  +  
|------------------|------------------|------------------|------------------|
|------------------|------------------|------------------|------------------|
|------------------|-3-----6\----1----|-3----------------|-3-----------3----|
|-4---------4----4-|------------------|------------------|------------------|

  1  +  2  +  3  +   1  +  2  +  3  +   1  +  2  +  3  +   1  +  2  +  3  +  
|------------------|------------------|------------------|------------------|
|------------------|------------------|------------------|------------------|
|------------------|-0-----3\----0----|-4--------------4-|-4-----3--1-------|
|-1-----------1--3-|------------------|------------------|------------------|

  1  +  2  +  3  +   1  +  2  +  3  +   1  +  2  +  3  +   1  +  2  +  3  +  
|------------------|------------------|------------------|------------------|
|------------------|------------------|------------------|------------------|
|------------------|-------1-----2----|-3----------------|-3----------------|
|-4--------------4-|-4----------------|------------------|------------------|

                                Verse 2

  1  +  2  +  3  +   1  +  2  +  3  +   1  +  2  +  3  +   1  +  2  +  3  +  
|------------------|R----------------R|R----------------R|R----------------R|
|------------------|E----------------E|E----------------E|E----------------E|
|-5----------------|S----------------S|S----------------S|S----------------S|
|------------------|T----------------T|T----------------T|T----------------T|

  1  +  2  +  3  +   1  +  2  +  3  +   1  +  2  +  3  +   1  +  2  +  3  +  
|R----------------R|R----------------R|R----------------R|R----------------R|
|E----------------E|E----------------E|E----------------E|E----------------E|
|S----------------S|S----------------S|S----------------S|S----------------S|
|T----------------T|T----------------T|T----------------T|T----------------T|

  1  +  2  +  3  +   1  +  2  +  3  +   1  +  2  +  3  +   1  +  2  +  3  +  
|R----------------R|R----------------R|R----------------R|R----------------R|
|E----------------E|E----------------E|E----------------E|E----------------E|
|S----------------S|S----------------S|S----------------S|S----------------S|
|T----------------T|T----------------T|T----------------T|T----------------T|

  1  +  2  +  3  +   1  +  2  +  3  +   1  +  2  +  3  +   1  +  2  +  3  +  
|R----------------R|R----------------R|------------------|------------------|
|E----------------E|E----------------E|------------------|------------------|
|S----------------S|S----------------S|----------------0-|-0-----2-----4----|
|T----------------T|T----------------T|------------------|------------------|

  1  +  2  +  3  +   1  +  2  +  3  +   1  +  2  +  3  +   1  +  2  +  3  +  
|------------------|------------------|------------------|------------------|
|------------------|------------------|------------------|------------------|
|-5----------------|-3----------------|------------------|------------------|
|------------------|------------------|-6-----------5----|-1----------------|

  1  +  2  +  3  +   1  +  2  +  3  +   1  +  2  +  3  +   1  +  2  +  3  +  
|------------------|------------------|------------------|------------------|
|-3--------------3-|-3-----3-----2\---|------------------|------------------|
|------------------|------------------|------------------|------------------|
|------------------|------------------|-3----------------|(3)---------------|

                               Chorus 2

  1  +  2  +  3  +   1  +  2  +  3  +   1  +  2  +  3  +   1  +  2  +  3  +  
|------------------|------------------|------------------|------------------|
|-3----------------|-2----------------|------------------|------------------|
|------------------|------------------|-5----------------|-3----------------|
|------------------|------------------|------------------|------------------|

  1  +  2  +  3  +   1  +  2  +  3  +   1  +  2  +  3  +   1  +  2  +  3  +  
|------------------|------------------|------------------|------------------|
|------------------|------------------|------------------|------------------|
|------------------|-1----------------|------------------|------------------|
|-3----------------|------------------|-1--------------1-|-1-----1-----1----|

                               Bridge 2

  1  +  2  +  3  +   1  +  2  +  3  +   1  +  2  +  3  +   1  +  2  +  3  +  
|------------------|------------------|------------------|------------------|
|------------------|------------------|------------------|-------3----------|
|-5--------------5-|-5-----5-----3----|-1--------------3-|-5-----------5\---|
|------------------|------------------|------------------|------------------|

  1  +  2  +  3  +   1  +  2  +  3  +   1  +  2  +  3  +   1  +  2  +  3  +  
|------------------|------------------|------------------|------------------|
|------------------|------------------|------------------|------------------|
|------------------|------------------|------------------|------------------|
|-1--------------1-|-1-----3-----5----|-3--------------3-|-3-----3-----5----|

  1  +  2  +  3  +   1  +  2  +  3  +   1  +  2  +  3  +   1  +  2  +  3  +  
|------------------|------------------|------------------|------------------|
|------------------|------------------|------------------|------------------|
|-1--------------1-|-1-----1-----2----|-3----------------|-4----------------|
|------------------|------------------|------------------|------------------|

                                Verse 3

  1  +  2  +  3  +   1  +  2  +  3  +   1  +  2  +  3  +   1  +  2  +  3  +  
|------------------|------------------|------------------|------------------|
|------------------|------------------|------------------|------------------|
|-5----------------|-3----------------|------------------|------------------|
|------------------|------------------|-6-----------5----|-1----------------|

  1  +  2  +  3  +   1  +  2  +  3  +   1  +  2  +  3  +   1  +  2  +  3  +  
|------------------|------------------|------------------|------------------|
|-3----------------|-3-----3-----2\---|------------------|------------------|
|------------------|------------------|------------------|------------------|
|------------------|------------------|-3----------------|(3)---------------|

  1  +  2  +  3  +   1  +  2  +  3  +   1  +  2  +  3  +   1  +  2  +  3  +  
|------------------|------------------|------------------|------------------|
|------------------|------------------|------------------|------------------|
|------------------|------------------|-3----------------|------------------|
|-1----------------|-5----------------|------------------|-6-----------5----|

  1  +  2  +  3  +   1  +  2  +  3  +   1  +  2  +  3  +   1  +  2  +  3  +  
|------------------|------------------|------------------|------------------|
|------------------|------------------|------------------|------------------|
|------------------|------------------|------------------|-------2-----4----|
|-1----------------|-1----------------|-5--------------5-|-5----------------|

  1  +  2  +  3  +   1  +  2  +  3  +   1  +  2  +  3  +   1  +  2  +  3  +  
|------------------|------------------|------------------|------------------|
|------------------|------------------|------------------|------------------|
|-5----------------|-3----------------|------------------|------------------|
|------------------|------------------|-6-----------5----|-1----------------|

  1  +  2  +  3  +   1  +  2  +  3  +   1  +  2  +  3  +   1  +  2  +  3  +  
|------------------|------------------|------------------|------------------|
|-3--------------3-|-3-----3-----2\---|------------------|------------------|
|------------------|------------------|------------------|------------------|
|------------------|------------------|-3----------------|(3)---------------|

  1  +  2  +  3  +   1  +  2  +  3  +   1  +  2  +  3  +   1  +  2  +  3  +  
|------------------|------------------|------------------|------------------|
|-3----------------|-2----------------|-0----------------|------------------|
|------------------|------------------|------------------|-3----------------|
|------------------|------------------|------------------|------------------|

  1  +  2  +  3  +   1  +  2  +  3  +   1  +  2  +  3  +   1  +  2  +  3  +  
|------------------|------------------|------------------|------------------|
|------------------|------------------|------------------|------------------|
|-2----------------|-1----------------|-0----------------|------------------|
|------------------|------------------|------------------|-3----------------|

                               Chorus 3/End

  1  +  2  +  3  +   1  +  2  +  3  +   1  +  2  +  3  +   1  +  2  +  3  +  
|------------------|------------------|------------------|------------------|
|-3----------------|-2----------------|-0----------------|------------------|
|------------------|------------------|------------------|-3----------------|
|------------------|------------------|------------------|------------------|

  1  +  2  +  3  +   1  +  2  +  3  +   1  +  2  +  3  +   1  +  2  +  3  +  
|------------------|------------------|------------------|------------------|
|------------------|------------------|------------------|------------------|
|------------------|-1----------------|------------------|------------------|
|-3----------------|------------------|-1----------------|(1)---------------|




Tab by A. Romanski
comments
We did not receive enough feedback on this tab! Please rate:
print report bad tab
1 2 3 4 5
I want to post or [tab]
guest
You may want to rate the tab now too:
select rating
Please do not post tabs as comments. Select "correction" instead!