Oops, an error
Loading. Please wait.

Rocket Man Tab

ver1
ver1

Whole song

Interactive

More versions @911Tabs.com
14,670 views 18 this week
no commentswrite comment
1 2 3 4 5
accurate
x 3
Autoscroll
+/-
esc
set tempo
stop
Contributor
Difficulty
intermediate
Hey! There's an official Ultimate Guitar app which is ideal
for learning songs when you're away from computer. Get the app
WARNING: You are trying to view
                                    content from Ultimate-Guitar.com
                                    in an unauthorized application,
                                    which is prohibited.

                                    Please use an official Ultimate
                                    Guitar Tabs application for iPhone,
                                    iPad or Android to access legitimate
                                    chords, guitar, bass, and drum tabs
                                    from Ultimate-Guitar.com database.

                                    Type "ultimate guitar tabs" in Apple
                                    App Store's or Android Market's
                                    search to find the application.
Guitar (Capo 3)
Capo on 3rd fret                                          

Intro/Verse 1:
Rest entire verse

Chorus 1:
|---------------------------|-------------------------------|
|---------------------------|--0~~~-0-0--0-0-0--0-0---0---0-|
|-------------------------0-|-------0-0--0-0-0--0-0-x-0-x-0-|
|-----------------------0---|-------0-0--0-0-0--0-0-x-0-x-0-|
|---------------------2-----|-------2-2--2-2-2--2-2---2---2-|
|-------------------3-------|-------3-3--3-3-3--3-3---3---3-|

---------------------------------|-------------------------------|
--1----1--1-3-------3---3-3--3-3-|--0---0-0--0-0-0-0---0-0-0---0-|
--0----0--0-0-----x-0-x-0-0--0-0-|--0---0-0--0-0-0-0-x-0-0-0-x-0-|
--2----2--2-2-----x-2-x-2-2--2-2-|--0---0-0--0-0-0-0-x-0-0-0-x-0-|
--3----3--3-3-------3---3-3--3-3-|--2---2-2--2-2-2-2---2-2-2---2-|
--3----3-------------------------|--3---3-3--3-3-3-3---3-3-3---3-|

|-------------------------------|-----------------------------------|
|--1----1--1-1-0----0-0-0-0-2-2-|--2---2-2-3-------3---2---2---2-3--|
|--0----0--0-0-0----0-0-0-0-2-2-|--2---2-2-2-----x-2-x-2-x-2-x-2-2--|
|--2----2--2-2-0----0-0-0-0-2-2-|--2---2-2-2-----x-2-x-2-x-2-x-2-2--|
|--3----3--3-3-2----2-2-2---0-0-|--0---0-0-0-------0---0---0---0-0--|
|--3----3--3-3-3----3-3-3-------|-----------------------------------|

--------------------------------|----7-----7----5-------5---5---5-5-----|
--1----1-1-1---3---3---3---3-3--|--8-8---0-8----3-------3---3---3-3-0-0-|
--0----0-0-0-x-0-x-0-x-0-x-0-0--|--7-7---0-7--x-4-----x-4-x-4-x-4-4-0-0-|
--2--x-2-2-2-x-2-x-2-x-2-x-2-2--|--0-0---0-0--x-5-----x-5-x-5-x-5-5-0-0-|
--3--x-3-3-3---3---3---3---3-3--|---------------------------------------|
--3------3----------------------|---------------------------------------|

|-------------------------------|-------------------------------|
|-1-1---1-1-1---3---3---3-1-1-1-|--0----0-0--0-0-0--0-0---0---0-|
|-0-0---0-0-0-x-0-x-0-x-0-0-0-0-|--0----0-0--0-0-0--0-0-x-0-x-0-|
|-2-2---2-2-2-x-2-x-2-x-2-2-2-2-|--0----0-0--0-0-0--0-0-x-0-x-0-|
|-3-3---3-3-3---3---3---3-3-3-3-|--2----2-2--2-2-2--2-2---2---2-|
|-3-------3---------------------|--3----3-3--3-3-3--3-3---3---3-|

-----------------------------|----7-----7----7---5---5---5-5-----|
--1----1--1-3---3---3-3--3-3-|--8-8---0-8----0---3---3---3-3-0-0-|
--0----0--0-0-x-0-x-0-0--0-0-|--7-7---0-7----0-0-4-x-4-x-4-4-0-0-|
--2----2--2-2-x-2-x-2-2--2-2-|--0-0---0-0----0-0-0-x-0-x-0-0-0-0-|
--3----3--3-3---3---3-3--3-3-|-----------------------------------|
--3----3---------------------|-----------------------------------|

---------------------------------|-------------------------------|
--1----1-3-3---1-0-0-0-0---0-0-0-|--2---2-2-3---3---2---2---2-3--|
--0----0-0-0---0-0-0-0-0---0-0-0-|--2---2-2-2-x-2-x-2-x-2-x-2-2--|
--2----2-2-2---2-0-0-0-0---0-0-0-|--2---2-2-2-x-2-x-2-x-2-x-2-2--|
--3----3-3-3---3-2-----2---2-----|--0---0-0-0---0---0---0---0-0--|
--3------------3-3-----3---3-----|-------------------------------|

--------------------------------|----7-----7--------5-------5---5-------|
--1----1-1-1---3---3---3---3-3--|--8-8---8-8----0---0-------0---0---0-0-|
--0----0-0-0-x-0-x-0-x-0-x-0-0--|--7-7---7-7--x-0-x-0-----x-0-x-0---0-0-|
--2--x-2-2-2-x-2-x-2-x-2-x-2-2--|--0-0---0-0--x-0-x-0-----x-0-x-0---0-0-|
--3--x-3-3-3---3---3---3---3-3--|---------------2---2-------2---2-------|
--3------3----------------------|---------------3---3-------3---3-------|

---------------------------------|-------------------||
--1--3-3-3-3---3---3---1---1-1-1-|-------------------||
--0--0-0-0-0-x-0-x-0-x-0-x-0-0-0-|--0~~~~------------||
--2--2-2-2-2-x-2-x-2-x-2-x-2-2-2-|--2~~~~------------||
--3----3-3-3---3---3---3---3-3-3-|--2~~~~------------||
--3--------------------3---------|--0~~~~------------||

Verse 2:
Rest entire verse

Chorus 2:
---------------------------|-------------------------------|
---------------------------|--0----0-0--0-0-0--0-0---0---0-|
-------------------------0-|-------0-0--0-0-0--0-0-x-0-x-0-|
-----------------------0---|-------0-0--0-0-0--0-0-x-0-x-0-|
---------------------2-----|-------2-2--2-2-2--2-2---2---2-|
-------------------3-------|-------3-3--3-3-3--3-3---3---3-|

-----------------------------|-------------------------------|
--1----1--1-3---3---3-3--3-3-|--0---0-0--0-0-0-0---0-0-0---0-|
--0----0--0-0-x-0-x-0-0--0-0-|--0---0-0--0-0-0-0-x-0-0-0-x-0-|
--2----2--2-2-x-2-x-2-2--2-2-|--0---0-0--0-0-0-0-x-0-0-0-x-0-|
--3----3--3-3---3---3-3--3-3-|--2---2-2--2-2-2-2---2-2-2---2-|
--3----3---------------------|--3---3-3--3-3-3-3---3-3-3---3-|

-------------------------------|-------------------------------|
--1----1--1-1-0----0-0-0-0-2-2-|--2---2-2-3---3---2---2---2-3--|
--0----0--0-0-0----0-0-0-0-2-2-|--2---2-2-2-x-2-x-2-x-2-x-2-2--|
--2----2--2-2-0----0-0-0-0-2-2-|--2---2-2-2-x-2-x-2-x-2-x-2-2--|
--3----3--3-3-2----2-2-2---0-0-|--0---0-0-0---0---0---0---0-0--|
--3----3--3-3-3----3-3-3-------|-------------------------------|

-------------------------------|----7-----7----5---5---5---5-5-----|
--1----1-1-1---3---3---3---3-3-|--8-8---8-8----3---3---3---3-3-0-0-|
--0----0-0-0-x-0-x-0-x-0-x-0-0-|--7-7---7-7--x-4-x-4-x-4-x-4-4-0-0-|
--2--x-2-2-2-x-2-x-2-x-2-x-2-2-|--0-0---0-0--x-5-x-5-x-5-x-5-5-0-0-|
--3--x-3-3-3---3---3---3---3-3-|-----------------------------------|
--3------3---------------------|-----------------------------------|

---------------------------------|-------------------------------|
--1-1---1-1-1---3---3---3-1-1-1--|--0----0-0--0-0-0--0-0---0---0-|
--0-0---0-0-0-x-0-x-0-x-0-0-0-0--|--0----0-0--0-0-0--0-0-x-0-x-0-|
--2-2---2-2-2-x-2-x-2-x-2-2-2-2--|--0----0-0--0-0-0--0-0-x-0-x-0-|
--3-3---3-3-3---3---3---3-3-3-3--|--2----2-2--2-2-2--2-2---2---2-|
--3-------3----------------------|--3----3-3--3-3-3--3-3---3---3-|

-----------------------------|----7-----7----7---5---5---5-5-----|
--1----1--1-3---3---3-3--3-3-|--8-8---0-8----0---3---3---3-3-0-0-|
--0----0--0-0-x-0-x-0-0--0-0-|--7-7---0-7----0-0-4-x-4-x-4-4-0-0-|
--2----2--2-2-x-2-x-2-2--2-2-|--0-0---0-0----0-0-0-x-0-x-0-0-0-0-|
--3----3--3-3---3---3-3--3-3-|-----------------------------------|
--3----3---------------------|-----------------------------------|

---------------------------------|-------------------------------|
--1----1-3-3---1-0-0-0-0---0-0-0-|--2---2-2-3---3---2---2---2-3--|
--0----0-0-0---0-0-0-0-0---0-0-0-|--2---2-2-2-x-2-x-2-x-2-x-2-2--|
--2----2-2-2---2-0-0-0-0---0-0-0-|--2---2-2-2-x-2-x-2-x-2-x-2-2--|
--3----3-3-3---3-2-----2---2-----|--0---0-0-0---0---0---0---0-0--|
--3------------3-3-----3---3-----|-------------------------------|

--------------------------------|----7-----7--------5---5---5-------|
--1----1-1-1---3---3---3---3-3--|--8-8---8-8----0---0---0---0---0-0-|
--0----0-0-0-x-0-x-0-x-0-x-0-0--|--7-7---7-7--x-0-x-0-x-0-x-0---0-0-|
--2--x-2-2-2-x-2-x-2-x-2-x-2-2--|--0-0---0-0--x-0-x-0-x-0-x-0---0-0-|
--3--x-3-3-3---3---3---3---3-3--|---------------2---2---2---2-------|
--3------3----------------------|---------------3---3---3---3-------|

Bridge: (... And I think it's gonna be a long, long time...)

---------0-1------------1---1---1---------|
--1--1-1-1-1------------1---1---1---1-1-1-|
--0--0-0-0-2----------x-2-x-2-x-2-x-0-0-0-|
--2--2-2-2-3----------x-3-x-3-x-3-x-2-2-2-|
--3----3-3-3------------3---3---3---3-3-3-|
--3---------------------------------------|

-------------------3--3-3-------3-------3-|--------------------------------|
--0---1-1----------1--3-3---1-1-1-0-0---1-|--1--0------1-1---0----1-1---0--|
--0---0-0----------0--0-0---0-0-0-0-0---0-|--0--0------0-0---0----0-0---0--|
--0---2-2----------2--0-0---2-2-2-0-0---2-|--2--0------2-2---0----2-2---0--|
--2-------------------2-2-----------2-----|-----3------------3----------3--|
--3---3-3----------3--3-3---3-3-3---3---3-|--------------------------------|

---------3--3-----3-3---3-------|--------------------------------|
--0--0-0-1--0--0--0-1---0---0-0-|--1----1-1-1---3---3---3---1-1--|
--0--0-0-0--0--0--0-0---0---0-0-|--0----0-0-0-x-0-x-0-x-0-x-0-0--|
--0--0-0-2--0--0--0-2---0---0-0-|--2--x-2-2-2-x-2-x-2-x-2-x-2-2--|
--2---------2-----2-------------|--3--x-3-3-3---3---3---3---3-3--|
--3------3--3-----3-3-L-3-L-----|--3------3----------------------|

---7---7-7-------8-8-8-8---7-----|---------1-1---------1---1-0--1-0-----|
-8-8---8-8---8-8-8-8-8-8---8---0-|--1--1-1-1-1---------1---1-1--1-1---1-|
-7-7---7-7---7-7-7-7-7-7---7---0-|--0--0-0-0-0-------x-0-x-0-0--0-0---0-|
-0-0---0-0---0-0-0-0-0-0---0---0-|--2--2-2-2---------x-2-x-2-2--2-2---2-|
---------------------------------|--3----3-3---------------3-3--3-3---3-|
---------------------------------|--3------------------------3----3-----|

----7-----7----7---5---5---5-3--|-----------------------------------|
--8-8---0-8----0---3---3---3-0--|--1-----1-3----3---3---3---3---0---|
--7-7---0-7----0-0-4-x-4-x-4-0--|--0-0---0-0--0-0-x-0-x-0-x-0---0-x-|
--0-0---0-0----0-0-0-x-0-x-0-0--|--2-2---2-2--2-2-x-2-x-2-x-2---0-x-|
--------------------------------|--3-3---3-3--3-3---3---3---3-------|
--------------------------------|--3--------------------------------|

--7-7-----7----7---5---5---5-3-----|-----------------------------------|
--8-8---0-8----8---3---3---3-0-0-0-|--1-----1-3----3---3---3---3---0---|
--7-7---0-7----7-x-4-x-4-x-4-0-0-0-|--0-0---0-0--0-0-x-0-x-0-x-0---0-x-|
--0-0---0-0----0-x-0-x-0-x-0-0-0-0-|--2-2---2-2--2-2-x-2-x-2-x-2---0-x-|
-----------------------------------|--3-3---3-3--3-3---3---3---3-------|
-----------------------------------|--3--------------------------------|

--7-7-----7----7---5---5---5-3-----|-----------------------------------|
--8-8---0-8----8---3---3---3-0-0-0-|--1-----1-3----3---3---3---3---0---|
--7-7---0-7----7-x-4-x-4-x-4-0-0-0-|--0-0---0-0--0-0-x-0-x-0-x-0---0-x-|
--0-0---0-0----0-x-0-x-0-x-0-0-0-0-|--2-2---2-2--2-2-x-2-x-2-x-2---0-x-|
-----------------------------------|--3-3---3-3--3-3---3---3---3-------|
-----------------------------------|--3--------------------------------|

--7-7-----7----7---5---5---5-3-----|-----------------------------------|
--8-8---0-8----8---3---3---3-0-0-0-|--1-----1-3----3---3---3---3---0---|
--7-7---0-7----7-x-4-x-4-x-4-0-0-0-|--0-0---0-0--0-0-x-0-x-0-x-0---0-x-|
--0-0---0-0----0-x-0-x-0-x-0-0-0-0-|--2-2---2-2--2-2-x-2-x-2-x-2---0-x-|
-----------------------------------|--3-3---3-3--3-3---3---3---3-------|
-----------------------------------|--3--------------------------------|

--7-7-----7----7---5---5---5-3-----|-----------------------------------|
--8-8---0-8----8---3---3---3-0-0-0-|--1-----1-3----3---3---3---3---0---|
--7-7---0-7----7-x-4-x-4-x-4-0-0-0-|--0-0---0-0--0-0-x-0-x-0-x-0---0-x-|
--0-0---0-0----0-x-0-x-0-x-0-0-0-0-|--2-2---2-2--2-2-x-2-x-2-x-2---0-x-|
-----------------------------------|--3-3---3-3--3-3---3---3---3-------|
-----------------------------------|--3--------------------------------|
comments
We did not receive enough feedback on this tab! Please rate:
print report bad tab
1 2 3 4 5
I want to post or [tab]
guest
You may want to rate the tab now too:
select rating
Please do not post tabs as comments. Select "correction" instead!