Oops, an error
Loading. Please wait.

On The Morning Dew Tab

13,193 views 15 this week
3 commentsread comments
1 2 3 4 5
accurate
x 1
Autoscroll
+/-
esc
set tempo
stop
Contributor
Difficulty
intermediate
Hey! There's an official Ultimate Guitar app which is ideal
for learning songs when you're away from computer. Get the app
WARNING: You are trying to view
                                    content from Ultimate-Guitar.com
                                    in an unauthorized application,
                                    which is prohibited.

                                    Please use an official Ultimate
                                    Guitar Tabs application for iPhone,
                                    iPad or Android to access legitimate
                                    chords, guitar, bass, and drum tabs
                                    from Ultimate-Guitar.com database.

                                    Type "ultimate guitar tabs" in Apple
                                    App Store's or Android Market's
                                    search to find the application.
On the Morning Dew
By Elvenking
Tabbed by Adam Stone
Capo 2 (all chords relative to capo)

[Intro 1:] (x2) (sounds better with barre chords)
Am   G   F
Am   G   C   G

[Intro 2:]
C/G	G	C/G   Fmaj7   C/G   G6
C/G	G	Fmaj7   G6   Am   Asus2   Am   Asus4

Played over the chords:
e|------------33----------------------------------------------|
B|-/5-55-55-55--3-1h3-/5-3-1h3-/5-55-5-3\1-0h1-/5-55-1-3-1-0--|
G|------------------------------------------------------------|

e|------------33-------------------------------------|
B|-/5-55-55-55--3-1h3--/5(3)-5-3-1-1--/6-5-3-3-—1-3--|
G|---------------------------------------------------|

[Verse 1:]
	 Am	            C/G
At the border of the plain where suddenly the forest dies
	 Am	        Fmaj7
On the first day of the season
	 C/G	         G6
When the moon will shine full in the sky
Am	            C/G
I will wait for you there bathed by a magic light
	  Fmaj7	        Am	    C/G          G6
I will wait, I will pray for this moment to become alive

Repeat [Intro 1] once

[Verse 2:]
For this night I will see you as an elf clad in leaves
You’re going to see myself the fairy of your secret dreams
Even if all this belongs to worlds of fantasy
For this time, only this night everything is fair, belongs to me
F	G
One night fantasy...

[Chorus:]
Am	  C/G	         G6	             Am
Live my every breath, my every touch, my every single sigh
Fmaj7	 C/G	  G6	  Am
Seizing hold of every glance
	  Fmaj7	         C/G	   G6
As the day’s passing by begins a wonderful sight
Fmaj7	        Am
Dancing on the morning dew, the dawn has come only for you
	   C/G	       Fmaj7	    Am       G6
I look up at the sky for the stars to be my guide


[Solo:]
						1:39
e|-----0----3-0---3-1-0--/3-1h3p1-0-----------3-0--3-0-3-0--1-1--0-----|
B|------1--1-3-1-3-----1------------1-/3-3-3--3--------------3-3--1-1--|
G|---2---2-------------------------------0-0-----------------------0---|
D|--2------------------------------------0-0---------------------------|
A|-0-------------------------------------------------------------------|
D|---------------------------------------------------------------------|

	1:42
e|--3p0-----0h1p0----------------0-|
B|-----1-1h3-----3-1p0-1p0-0h1h3-1-|
G|------0-----------------2------2-|(strum for four measures)
D|-------------------------------2-|
A|-------------------------------0-|
D|---------------------------------|

[Violin Solo:]
Am   C/G   G6   Am   Em   Fmaj7   C

e|--0---------------0-|
B|----3-1-3-1---0---1-|
G|------------2---2-2-|(strum for four measures)
D|------------------2-|
A|------------------0-|
D|--------------------|

Repeat [Intro 2]

[Verse 3:]
At the border of the plain where suddenly the forest dies
On the first day of the season
When the moon will shine full in the sky
I waited for you there bathed by a magic light
I have waited, I have prayed and this moment has become alive
One night fantasy...

[Chorus:]
Live my every breath, my every touch, my every single sigh
Seizing hold of every glance
As the day’s passing by begins a wonderful sight
Dancing on the morning dew, the dawn has come only for you
I look up at the sky for the stars to be my guide

Repeat [Intro 1] twice. Last two chords (C and G) are arpeggiated:

[Ending:]
	C	G		C
e|------------------------------------------------3--|
B|--5-5-----------3-3h5p3------------3-3h5p3------5--|
G|--5---5-------4---------5----5---5---------5----5--|
D|--5-----5---5-------------5----5-------------5—-5--|
A|--3--------------------------3------------------3--|
D|----------3----------------------------------------|

Note: To print, copy to Word and use Courier New size 10.
comments
We did not receive enough feedback on this tab! Please rate:
print report bad tab
1 2 3 4 5
3 comments total.
+1 reply
Stone Fury wrote on February 5 2008, 06:18 pm

Of course I found a mistake right after submitting this... The first part of the solo should actually be this:

[Solo:]
1:39
e|-----0----3-0---1-----/3-1h3p1-0-----------3-0--3-0-3-0--1-1--0-----
B|------1--1-3-1-3-3-1-------------1-/3-3-3--3--------------3-3--1-1--
G|---2---2------------0-----------------0-0-----------------------0---
D|--2-----------------------------------0-0---------------------------
A|-0------------------------------------------------------------------
D|--------------------------------------------------------------------

0 reply
Stone Fury wrote on February 5 2008, 10:00 pm

Found another mistake I didn't notice: tuning should be standard, not drop D.

0 reply
6METAL6BASSIST6 wrote on September 2 2013, 07:11 pm

I gotta get an acoustic guitar..this song is ****ing beautiful.

I want to post or [tab]
guest
You may want to rate the tab now too:
select rating
Please do not post tabs as comments. Select "correction" instead!