Oops, an error
Loading. Please wait.

Skywards Tab

ver1
ver1

Whole song

Interactive

More versions @911Tabs.com
493 views 1 this week
no commentswrite comment
1 2 3 4 5
excellent!
x 1
Autoscroll
+/-
esc
set tempo
stop
Contributor
Difficulty
intermediate
NEW! There's an official Ultimate Guitar app which is ideal
for learning songs when you're away from computer. Get the app
WARNING: You are trying to view
                                    content from Ultimate-Guitar.com
                                    in an unauthorized application,
                                    which is prohibited.

                                    Please use an official Ultimate
                                    Guitar Tabs application for iPhone,
                                    iPad or Android to access legitimate
                                    chords, guitar, bass, and drum tabs
                                    from Ultimate-Guitar.com database.

                                    Type "ultimate guitar tabs" in Apple
                                    App Store's or Android Market's
                                    search to find the application.
This the main guitar part my Aydan, I'll put the embellishments in a separate tab, 
with the violin - or that might be separate too.
I didn't tab this, credit goes to Kevin Kler & Dor Ziv - 'RadicalDreamer' on UG.


    Skywards                                     


                                                                       Elvenking
Aydan


Intro
     E  S S S S E  S S S S    E  S S S S E  S S S S    E  S S S S E  S S S S  
E||--0--0-0-0-0-0--0-0-0-0-|--0--0-0-0-0-0--0-0-0-0-|--3--3-3-3-3-3--3-3-3-3-|
B||--1--1-1-1-1-1--1-1-1-1-|--1--1-1-1-1-1--1-1-1-1-|--0--0-0-0-0-0--0-0-0-0-|
G||--2--2-2-2-2-2--2-2-2-2-|--0--0-0-0-0-0--0-0-0-0-|--0--0-0-0-0-0--0-0-0-0-|
D||--2--2-2-2-2-2--2-2-2-2-|--2--2-2-2-2-2--2-2-2-2-|--0--0-0-0-0-0--0-0-0-0-|
A||--0--0-0-0-0-0--0-0-0-0-|--3--3-3-3-3-3--3-3-3-3-|--2--2-2-2-2-2--2-2-2-2-|
E||------------------------|------------------------|--3--3-3-3-3-3--3-3-3-3-|


  E  S S S S E  S S S S    E  S S S S E  S S S S    E  S S S S E  S S S S  
--0--0-0-0-0-3--3-3-3-3-|--0--0-0-0-0-0--0-0-0-0-|--0--0-0-0-0-0--0-0-0-0-|
--1--1-1-1-1-0--0-0-0-0-|--1--1-1-1-1-1--1-1-1-1-|--1--1-1-1-1-1--1-1-1-1-|
--0--0-0-0-0-0--0-0-0-0-|--2--2-2-2-2-2--2-2-2-2-|--0--0-0-0-0-0--0-0-0-0-|
--2--2-2-2-2-0--0-0-0-0-|--2--2-2-2-2-2--2-2-2-2-|--2--2-2-2-2-2--2-2-2-2-|
--3--3-3-3-3-2--2-2-2-2-|--0--0-0-0-0-0--0-0-0-0-|--3--3-3-3-3-3--3-3-3-3-|
-------------3--3-3-3-3-|------------------------|------------------------|


  E  S S S S E  S S S S    E  S S S S E  S S S S    E  S S S S E  S S S S  
--3--3-3-3-3-3--3-3-3-3-|--0--0-0-0-0-3--3-3-3-3-|--0--0-0-0-0-0--0-0-0-0-|
--0--0-0-0-0-0--0-0-0-0-|--1--1-1-1-1-0--0-0-0-0-|--1--1-1-1-1-1--1-1-1-1-|
--0--0-0-0-0-0--0-0-0-0-|--0--0-0-0-0-0--0-0-0-0-|--2--2-2-2-2-2--2-2-2-2-|
--0--0-0-0-0-0--0-0-0-0-|--2--2-2-2-2-0--0-0-0-0-|--2--2-2-2-2-2--2-2-2-2-|
--2--2-2-2-2-2--2-2-2-2-|--3--3-3-3-3-2--2-2-2-2-|--0--0-0-0-0-0--0-0-0-0-|
--3--3-3-3-3-3--3-3-3-3-|-------------3--3-3-3-3-|------------------------|


  E  S S S S E  S S S S    E  S S S S E  S S S S    E  S S S S E  S S S S  
--0--0-0-0-0-0--0-0-0-0-|--3--3-3-3-3-3--3-3-3-3-|--0--0-0-0-0-3--3-3-3-3-|
--1--1-1-1-1-1--1-1-1-1-|--0--0-0-0-0-0--0-0-0-0-|--1--1-1-1-1-0--0-0-0-0-|
--0--0-0-0-0-0--0-0-0-0-|--0--0-0-0-0-0--0-0-0-0-|--0--0-0-0-0-0--0-0-0-0-|
--2--2-2-2-2-2--2-2-2-2-|--0--0-0-0-0-0--0-0-0-0-|--2--2-2-2-2-0--0-0-0-0-|
--3--3-3-3-3-3--3-3-3-3-|--2--2-2-2-2-2--2-2-2-2-|--3--3-3-3-3-2--2-2-2-2-|
------------------------|--3--3-3-3-3-3--3-3-3-3-|-------------3--3-3-3-3-|


  E  S S S S E  S S S S    E  S S S S E  S S S S    E  S S S S E  S S S S  
--0--0-0-0-0-0--0-0-0-0-|--0--0-0-0-0-0--0-0-0-0-|--3--3-3-3-3-3--3-3-3-3-|
--1--1-1-1-1-1--1-1-1-1-|--1--1-1-1-1-1--1-1-1-1-|--0--0-0-0-0-0--0-0-0-0-|
--2--2-2-2-2-2--2-2-2-2-|--0--0-0-0-0-0--0-0-0-0-|--0--0-0-0-0-0--0-0-0-0-|
--2--2-2-2-2-2--2-2-2-2-|--2--2-2-2-2-2--2-2-2-2-|--0--0-0-0-0-0--0-0-0-0-|
--0--0-0-0-0-0--0-0-0-0-|--3--3-3-3-3-3--3-3-3-3-|--2--2-2-2-2-2--2-2-2-2-|
------------------------|------------------------|--3--3-3-3-3-3--3-3-3-3-|


  E  S S S S E  S S S S    S S S S S S S S S S E   
--0--0-0-0-0-3--3-3-3-3-|--0-0-0-0-0-0-3-3-3-3----|
--1--1-1-1-1-0--0-0-0-0-|--1-1-1-1-1-1-0-0-0-0----|
--0--0-0-0-0-0--0-0-0-0-|--2-2-2-0-0-0-0-0-0-0----|
--2--2-2-2-2-0--0-0-0-0-|--2-2-2-2-2-2-0-0-0-0----|
--3--3-3-3-3-2--2-2-2-2-|--0-0-0-3-3-3-2-2-2-2----|
-------------3--3-3-3-3-|--------------3-3-3-3----|


   S  S S  S  S S  S  S  S  S E     S S S S S S S S S S E   
------------------15-15-15-15----|--0-0-0-0-0-0-3-3-3-3----|
--13-13-x-12-12-x-13-13-13-13----|--1-1-1-1-1-1-0-0-0-0----|
--14-14-x-12-12-x-14-14-14-14----|--2-2-2-0-0-0-0-0-0-0----|
--14-14-x-12-12-x----------------|--2-2-2-2-2-2-0-0-0-0----|
---------------------------------|--0-0-0-3-3-3-2-2-2-2----|
---------------------------------|--------------3-3-3-3----|


   S  S S  S  S S  S  S  S  S E     S S S S S S S S S S E   
------------------15-15-15-15----|--0-0-0-0-0-0-3-3-3-3----|
--13-13-x-12-12-x-13-13-13-13----|--1-1-1-1-1-1-0-0-0-0----|
--14-14-x-12-12-x-14-14-14-14----|--2-2-2-0-0-0-0-0-0-0----|
--14-14-x-12-12-x----------------|--2-2-2-2-2-2-0-0-0-0----|
---------------------------------|--0-0-0-3-3-3-2-2-2-2----|
---------------------------------|--------------3-3-3-3----|


   S  S S  S  S S  S  S  S  S E     S S S S S S S S S S E   
------------------15-15-15-15----|--0-0-0-0-0-0-3-3-3-3----|
--13-13-x-12-12-x-13-13-13-13----|--1-1-1-1-1-1-0-0-0-0----|
--14-14-x-12-12-x-14-14-14-14----|--2-2-2-0-0-0-0-0-0-0----|
--14-14-x-12-12-x----------------|--2-2-2-2-2-2-0-0-0-0----|
---------------------------------|--0-0-0-3-3-3-2-2-2-2----|
---------------------------------|--------------3-3-3-3----|

                                  Verse
   S  S S  S  S S  S  S  S  S E     Q.     Q.        Q.     Q.      
------------------15-15-15-15----|--0------0------|--0------2------|
--13-13-x-12-12-x-13-13-13-13----|--1------1------|--1------3------|
--14-14-x-12-12-x-14-14-14-14----|--2------2------|--0------2------|
--14-14-x-12-12-x----------------|--2------2------|--2------0------|
---------------------------------|--0------0------|--3-------------|
---------------------------------|----------------|----------------|


  Q.     Q.        Q.     Q.        Q.     Q.        Q.     Q.      
--1------1------|--0------3------|--0------3------|--1------0------|
--3------3------|--1------0------|--1------0------|--3------1------|
--2------2------|--0------0------|--0------0------|--2------2------|
--0------0------|--2------0------|--2------0------|--0------2------|
----------------|--3------2------|--3------2------|---------0------|
----------------|---------3------|---------3------|----------------|


  Q.     Q.        Q.     Q.        Q.     Q.        Q.     Q.      
--1------1------|--0------0------|--0------2------|--1------1------|
--1------1------|--1------1------|--1------3------|--3------3------|
--2------2------|--2------2------|--0------2------|--2------2------|
--3------3------|--2------2------|--2------0------|--0------0------|
--3------3------|--0------0------|--3-------------|----------------|
--1------1------|----------------|----------------|----------------|


  Q.     Q.        Q.     Q.        Q.     Q.        Q.     Q.      
--0------3------|--0------3------|--1------0------|--1------1------|
--1------0------|--1------0------|--3------1------|--1------1------|
--0------0------|--0------0------|--2------2------|--2------2------|
--2------0------|--2------0------|--0------2------|--3------3------|
--3------2------|--3------2------|---------0------|--3------3------|
---------3------|---------3------|----------------|--1------1------|


  Q.     Q.        E  S S S S E  S S S S    E  S S S S E  S S S S  
--1------1------|--0--0-0-0-0-0--0-0-0-0-|--0--0-0-0-0-0--0-0-0-0-|
--1------1------|--1--1-1-1-1-1--1-1-1-1-|--1--1-1-1-1-1--1-1-1-1-|
--2------2------|--2--2-2-2-2-2--2-2-2-2-|--0--0-0-0-0-0--0-0-0-0-|
--3------3------|--2--2-2-2-2-2--2-2-2-2-|--2--2-2-2-2-2--2-2-2-2-|
--3------3------|--0--0-0-0-0-0--0-0-0-0-|--3--3-3-3-3-3--3-3-3-3-|
--1------1------|------------------------|------------------------|


  E  S S S S E  S S S S    E  S S S S E  S S S S    E  S S S S E  S S S S  
--3--3-3-3-3-3--3-3-3-3-|--0--0-0-0-0-3--3-3-3-3-|--0--0-0-0-0-0--0-0-0-0-|
--0--0-0-0-0-0--0-0-0-0-|--1--1-1-1-1-0--0-0-0-0-|--1--1-1-1-1-1--1-1-1-1-|
--0--0-0-0-0-0--0-0-0-0-|--0--0-0-0-0-0--0-0-0-0-|--2--2-2-2-2-2--2-2-2-2-|
--0--0-0-0-0-0--0-0-0-0-|--2--2-2-2-2-0--0-0-0-0-|--2--2-2-2-2-2--2-2-2-2-|
--2--2-2-2-2-2--2-2-2-2-|--3--3-3-3-3-2--2-2-2-2-|--0--0-0-0-0-0--0-0-0-0-|
--3--3-3-3-3-3--3-3-3-3-|-------------3--3-3-3-3-|------------------------|


  E  S S S S E  S S S S    E  S S S S E  S S S S    E  S S S S E  S S S S  
--0--0-0-0-0-0--0-0-0-0-|--3--3-3-3-3-3--3-3-3-3-|--0--0-0-0-0-3--3-3-3-3-|
--1--1-1-1-1-1--1-1-1-1-|--0--0-0-0-0-0--0-0-0-0-|--1--1-1-1-1-0--0-0-0-0-|
--0--0-0-0-0-0--0-0-0-0-|--0--0-0-0-0-0--0-0-0-0-|--0--0-0-0-0-0--0-0-0-0-|
--2--2-2-2-2-2--2-2-2-2-|--0--0-0-0-0-0--0-0-0-0-|--2--2-2-2-2-0--0-0-0-0-|
--3--3-3-3-3-3--3-3-3-3-|--2--2-2-2-2-2--2-2-2-2-|--3--3-3-3-3-2--2-2-2-2-|
------------------------|--3--3-3-3-3-3--3-3-3-3-|-------------3--3-3-3-3-|

Bridge
  E  S E  S E  S S S S E  S E  S    E  S S S S E  S E  S  
--3----0----2--2-2-2-2-3----0----|--2--2-2-2-2-3----0----|
--0----1----3--3-3-3-3-3----1----|--3--3-3-3-3-3----1----|
--0----0----2--2-2-2-2-2----0----|--2--2-2-2-2-2----0----|
--0----2----0--0-0-0-0-0----2----|--0--0-0-0-0-0----2----|
--2----3--------------------3----|------------------3----|
--3------------------------------|-----------------------|


  E  S S S S E  S S S S    E  S S S S E  S S S S    E  S S S S E  S S S S  
--0--0-0-0-0-0--0-0-0-0-|--3--3-3-3-3-3--3-3-3-3-|--0--0-0-0-0-0--0-0-0-0-|
--1--1-1-1-1-1--1-1-1-1-|--0--0-0-0-0-0--0-0-0-0-|--1--1-1-1-1-1--1-1-1-1-|
--2--2-2-2-2-2--2-2-2-2-|--0--0-0-0-0-0--0-0-0-0-|--2--2-2-2-2-2--2-2-2-2-|
--2--2-2-2-2-2--2-2-2-2-|--0--0-0-0-0-0--0-0-0-0-|--2--2-2-2-2-2--2-2-2-2-|
--0--0-0-0-0-0--0-0-0-0-|--2--2-2-2-2-2--2-2-2-2-|--0--0-0-0-0-0--0-0-0-0-|
------------------------|--3--3-3-3-3-3--3-3-3-3-|------------------------|


  E  S S S S E  S S S S    E.  S E  E.  S E     E.  S E  E  E  E   
--3--3-3-3-3-3--3-3-3-3-|--0---0-0--0---0-0--|--0---0-0--3--0-----|
--0--0-0-0-0-0--0-0-0-0-|--1---1-1--1---1-1--|--1---1-1--0--1-----|
--0--0-0-0-0-0--0-0-0-0-|--2---2-2--0---0-0--|--2---2-2--0--2-----|
--0--0-0-0-0-0--0-0-0-0-|--2---2-2--2---2-2--|--2---2-2--0--2-----|
--2--2-2-2-2-2--2-2-2-2-|--0---0-0--3---3-3--|--0---0-0--2--0-----|
--3--3-3-3-3-3--3-3-3-3-|--------------------|-----------3--------|


  E.  S E  E.  S E     E.  S E  E  E  E     E.  S E  E.  S E   
--0---0-0--3---3-3--|--1---1-1--1--1--1--|--0---0-0--0---0-0--|
--1---1-1--0---0-0--|--1---1-1--1--1--1--|--1---1-1--1---1-1--|
--2---2-2--0---0-0--|--2---2-2--2--2--2--|--2---2-2--0---0-0--|
--2---2-2--0---0-0--|--3---3-3--3--3--3--|--2---2-2--2---2-2--|
--0---0-0--2---2-2--|--3---3-3--3--3--3--|--0---0-0--3---3-3--|
-----------3---3-3--|--1---1-1--1--1--1--|--------------------|


  E.  S E  E  E  E     E.  S E  E.  S E     E.  S E  E  E  E   
--0---0-0--3--0-----|--0---0-0--3---3-3--|--1---1-1--1--1--1--|
--1---1-1--0--1-----|--1---1-1--0---0-0--|--1---1-1--1--1--1--|
--2---2-2--0--2-----|--2---2-2--0---0-0--|--2---2-2--2--2--2--|
--2---2-2--0--2-----|--2---2-2--0---0-0--|--3---3-3--3--3--3--|
--0---0-0--2--0-----|--0---0-0--2---2-2--|--3---3-3--3--3--3--|
-----------3--------|-----------3---3-3--|--1---1-1--1--1--1--|

Chorus
  E  S S S S E  S S S S    E  S S S S E  E  E     E  S S S S E  S S S S  
--0--0-0-0-0-0--0-0-0-0-|--0--0-0-0-0-3--0-----|--3--3-3-3-3-3--3-3-3-3-|
--1--1-1-1-1-1--1-1-1-1-|--1--1-1-1-1-0--1-----|--0--0-0-0-0-0--0-0-0-0-|
--2--2-2-2-2-0--0-0-0-0-|--2--2-2-2-2-0--2-----|--0--0-0-0-0-0--0-0-0-0-|
--2--2-2-2-2-2--2-2-2-2-|--2--2-2-2-2-0--2-----|--0--0-0-0-0-0--0-0-0-0-|
--0--0-0-0-0-3--3-3-3-3-|--0--0-0-0-0-2--0-----|--2--2-2-2-2-2--2-2-2-2-|
------------------------|-------------3--------|--3--3-3-3-3-3--3-3-3-3-|


  E  S S S S E  S S S S    E  S S S S E  S S S S    E  S S S S E  E  E   
--0--0-0-0-0-3--3-3-3-3-|--0--0-0-0-0-0--0-0-0-0-|--0--0-0-0-0-3--0-----|
--1--1-1-1-1-0--0-0-0-0-|--1--1-1-1-1-1--1-1-1-1-|--1--1-1-1-1-0--1-----|
--0--0-0-0-0-0--0-0-0-0-|--2--2-2-2-2-0--0-0-0-0-|--2--2-2-2-2-0--2-----|
--2--2-2-2-2-0--0-0-0-0-|--2--2-2-2-2-2--2-2-2-2-|--2--2-2-2-2-0--2-----|
--3--3-3-3-3-2--2-2-2-2-|--0--0-0-0-0-3--3-3-3-3-|--0--0-0-0-0-2--0-----|
-------------3--3-3-3-3-|------------------------|-------------3--------|


  E  S S S S E  S S S S    E  S S S S E  S S S S    E  S S S S E  S S S S  
--0--0-0-0-0-3--3-3-3-3-|--1--1-1-1-1-1--1-1-1-1-|--0--0-0-0-0-0--0-0-0-0-|
--1--1-1-1-1-0--0-0-0-0-|--1--1-1-1-1-1--1-1-1-1-|--1--1-1-1-1-1--1-1-1-1-|
--0--0-0-0-0-0--0-0-0-0-|--2--2-2-2-2-2--2-2-2-2-|--2--2-2-2-2-0--0-0-0-0-|
--2--2-2-2-2-0--0-0-0-0-|--3--3-3-3-3-3--3-3-3-3-|--2--2-2-2-2-2--2-2-2-2-|
--3--3-3-3-3-2--2-2-2-2-|--3--3-3-3-3-3--3-3-3-3-|--0--0-0-0-0-3--3-3-3-3-|
-------------3--3-3-3-3-|--1--1-1-1-1-1--1-1-1-1-|------------------------|


  E  S S S S E  E  E     E  S S S S E  S S S S    E  S S S S E  S S S S  
--0--0-0-0-0-3--0-----|--3--3-3-3-3-3--3-3-3-3-|--0--0-0-0-0-3--3-3-3-3-|
--1--1-1-1-1-0--1-----|--0--0-0-0-0-0--0-0-0-0-|--1--1-1-1-1-0--0-0-0-0-|
--2--2-2-2-2-0--2-----|--0--0-0-0-0-0--0-0-0-0-|--0--0-0-0-0-0--0-0-0-0-|
--2--2-2-2-2-0--2-----|--0--0-0-0-0-0--0-0-0-0-|--2--2-2-2-2-0--0-0-0-0-|
--0--0-0-0-0-2--0-----|--2--2-2-2-2-2--2-2-2-2-|--3--3-3-3-3-2--2-2-2-2-|
-------------3--------|--3--3-3-3-3-3--3-3-3-3-|-------------3--3-3-3-3-|


  E  S S S S E  S S S S    E  S S S S E  E  E     E  S S S S E  S S S S  
--0--0-0-0-0-0--0-0-0-0-|--0--0-0-0-0-3--0-----|--0--0-0-0-0-3--3-3-3-3-|
--1--1-1-1-1-1--1-1-1-1-|--1--1-1-1-1-0--1-----|--1--1-1-1-1-0--0-0-0-0-|
--2--2-2-2-2-0--0-0-0-0-|--2--2-2-2-2-0--2-----|--0--0-0-0-0-0--0-0-0-0-|
--2--2-2-2-2-2--2-2-2-2-|--2--2-2-2-2-0--2-----|--2--2-2-2-2-0--0-0-0-0-|
--0--0-0-0-0-3--3-3-3-3-|--0--0-0-0-0-2--0-----|--3--3-3-3-3-2--2-2-2-2-|
------------------------|-------------3--------|-------------3--3-3-3-3-|


  E  S S S S E  S S S S    E  S S E    E  S S E     E  S S E    E  S S S S  
--1--1-1-1-1-1--1-1-1-1-|------------------------|-------------------------|
--1--1-1-1-1-1--1-1-1-1-|------------------------|---------------------3-5-|
--2--2-2-2-2-2--2-2-2-2-|--2------2--4g5--4-2-4--|--2------2--4g5--4-5-----|
--3--3-3-3-3-3--3-3-3-3-|--2------2--------------|--2------2---------------|
--3--3-3-3-3-3--3-3-3-3-|--0--0-0-0--------------|--0--0-0-0---------------|
--1--1-1-1-1-1--1-1-1-1-|------------------------|-------------------------|


  E  S S E    E  S S E     E  E  E  E  E  E     E  S S E    E  S S E   
------------------------|--------------------|------------------------|
------------------------|-----------0--3--0--|------------------------|
--2------2--4g5--4-2-4--|--------------------|--2------2--4g5--4-2-4--|
--2------2--------------|--------0-----------|--2------2--------------|
--0--0-0-0--------------|-----2--------------|--0--0-0-0--------------|
------------------------|--3-----------------|------------------------|


  E  S S E    E  S S S S    E  S S E    E  S S E     E  E  E  E  Q     
-------------------------|------------------------|-------------------|
---------------------3-5-|------------------------|-----------0--3----|
--2------2--4g5--4-5-----|--2------2--4g5--4-2-4--|-------------------|
--2------2---------------|--2------2--------------|--------0----------|
--0--0-0-0---------------|--0--0-0-0--------------|-----2-------------|
-------------------------|------------------------|--3----------------|


  E  S S S S E  S S S S    E  S S S S E  E  E     E  S S S S E  S S S S  
--0--0-0-0-0-3--3-3-3-3-|--0--0-0-0-0-2--3--2--|--0--0-0-0-0-3--3-3-3-3-|
--0--0-0-0-0-0--0-0-0-0-|--1--1-1-1-1-3--3--3--|--0--0-0-0-0-0--0-0-0-0-|
--0--0-0-0-0-0--0-0-0-0-|--0--0-0-0-0-2--2--2--|--0--0-0-0-0-0--0-0-0-0-|
--2--2-2-2-2-0--0-0-0-0-|--2--2-2-2-2-0--0--0--|--2--2-2-2-2-0--0-0-0-0-|
--2--2-2-2-2-2--2-2-2-2-|--3--3-3-3-3----------|--2--2-2-2-2-2--2-2-2-2-|
--0--0-0-0-0-3--3-3-3-3-|----------------------|--0--0-0-0-0-3--3-3-3-3-|


  S S E  E  E  S S S S    E  S S S S E  S S S S    E  S S S S E  S S S S  
------------0--0-0-0-0-|--0--0-0-0-0-2--2-2-2-2-|--3--3-3-3-3-0--0-0-0-0-|
------------0--0-0-0-0-|--1--1-1-1-1-3--3-3-3-3-|--0--0-0-0-0-2--2-2-2-2-|
------------0--0-0-0-0-|--2--2-2-2-2-2--2-2-2-2-|--0--0-0-0-0-2--2-2-2-2-|
------------2--2-2-2-2-|--2--2-2-2-2-0--0-0-0-0-|--0--0-0-0-0-2--2-2-2-2-|
----0-------2--2-2-2-2-|--0--0-0-0-0------------|--2--2-2-2-2-0--0-0-0-0-|
--3---3--2--0--0-0-0-0-|------------------------|--3--3-3-3-3------------|

                         Verse 2
  E  S S S S E  S S S S    Q.     Q.        Q.     Q.        Q.     Q.      
--0--0-0-0-0-2--2-2-2-2-|--0------0------|--0------2------|--1------1------|
--1--1-1-1-1-3--3-3-3-3-|--1------1------|--1------3------|--3------3------|
--0--0-0-0-0-2--2-2-2-2-|--2------2------|--0------2------|--2------2------|
--2--2-2-2-2-0--0-0-0-0-|--2------2------|--2------0------|--0------0------|
--3--3-3-3-3------------|--0------0------|--3-------------|----------------|
------------------------|----------------|----------------|----------------|


  Q.     Q.        Q.     Q.        Q.     Q.        Q.     Q.      
--0------3------|--0------3------|--1------0------|--1------1------|
--1------0------|--1------0------|--3------1------|--1------1------|
--0------0------|--0------0------|--2------2------|--2------2------|
--2------0------|--2------0------|--0------2------|--3------3------|
--3------2------|--3------2------|---------0------|--3------3------|
---------3------|---------3------|----------------|--1------1------|


  Q.     Q.        E  S S S S E  S S S S    E  S S S S E  S S S S  
--1------1------|--0--0-0-0-0-0--0-0-0-0-|--0--0-0-0-0-0--0-0-0-0-|
--1------1------|--1--1-1-1-1-1--1-1-1-1-|--1--1-1-1-1-1--1-1-1-1-|
--2------2------|--2--2-2-2-2-2--2-2-2-2-|--0--0-0-0-0-0--0-0-0-0-|
--3------3------|--2--2-2-2-2-2--2-2-2-2-|--2--2-2-2-2-2--2-2-2-2-|
--3------3------|--0--0-0-0-0-0--0-0-0-0-|--3--3-3-3-3-3--3-3-3-3-|
--1------1------|------------------------|------------------------|


  E  S S S S E  S S S S    E  S S S S E  S S S S  
--3--3-3-3-3-3--3-3-3-3-|--0--0-0-0-0-3--3-3-3-3-|
--0--0-0-0-0-0--0-0-0-0-|--1--1-1-1-1-0--0-0-0-0-|
--0--0-0-0-0-0--0-0-0-0-|--0--0-0-0-0-0--0-0-0-0-|
--0--0-0-0-0-0--0-0-0-0-|--2--2-2-2-2-0--0-0-0-0-|
--2--2-2-2-2-2--2-2-2-2-|--3--3-3-3-3-2--2-2-2-2-|
--3--3-3-3-3-3--3-3-3-3-|-------------3--3-3-3-3-|

Bridge
  E  S E  S E  S S S S E  S E  S    E  S S S S E  S E  S  
--3----0----2--2-2-2-2-3----0----|--2--2-2-2-2-3----0----|
--0----1----3--3-3-3-3-3----1----|--3--3-3-3-3-3----1----|
--0----0----2--2-2-2-2-2----0----|--2--2-2-2-2-2----0----|
--0----2----0--0-0-0-0-0----2----|--0--0-0-0-0-0----2----|
--2----3--------------------3----|------------------3----|
--3------------------------------|-----------------------|


  E  S S S S E  S S S S    E  S S S S E  S S S S    E  S S S S E  S S S S  
--0--0-0-0-0-0--0-0-0-0-|--3--3-3-3-3-3--3-3-3-3-|--0--0-0-0-0-0--0-0-0-0-|
--1--1-1-1-1-1--1-1-1-1-|--0--0-0-0-0-0--0-0-0-0-|--1--1-1-1-1-1--1-1-1-1-|
--2--2-2-2-2-2--2-2-2-2-|--0--0-0-0-0-0--0-0-0-0-|--2--2-2-2-2-2--2-2-2-2-|
--2--2-2-2-2-2--2-2-2-2-|--0--0-0-0-0-0--0-0-0-0-|--2--2-2-2-2-2--2-2-2-2-|
--0--0-0-0-0-0--0-0-0-0-|--2--2-2-2-2-2--2-2-2-2-|--0--0-0-0-0-0--0-0-0-0-|
------------------------|--3--3-3-3-3-3--3-3-3-3-|------------------------|


  E  S S S S E  S S S S    E.  S E  E.  S E     E.  S E  E  E  E   
--3--3-3-3-3-3--3-3-3-3-|--0---0-0--0---0-0--|--0---0-0--3--0-----|
--0--0-0-0-0-0--0-0-0-0-|--1---1-1--1---1-1--|--1---1-1--0--1-----|
--0--0-0-0-0-0--0-0-0-0-|--2---2-2--0---0-0--|--2---2-2--0--2-----|
--0--0-0-0-0-0--0-0-0-0-|--2---2-2--2---2-2--|--2---2-2--0--2-----|
--2--2-2-2-2-2--2-2-2-2-|--0---0-0--3---3-3--|--0---0-0--2--0-----|
--3--3-3-3-3-3--3-3-3-3-|--------------------|-----------3--------|


  E.  S E  E.  S E     E.  S E  E  E  E     E.  S E  E.  S E   
--0---0-0--3---3-3--|--1---1-1--1--1--1--|--0---0-0--0---0-0--|
--1---1-1--0---0-0--|--1---1-1--1--1--1--|--1---1-1--1---1-1--|
--2---2-2--0---0-0--|--2---2-2--2--2--2--|--2---2-2--0---0-0--|
--2---2-2--0---0-0--|--3---3-3--3--3--3--|--2---2-2--2---2-2--|
--0---0-0--2---2-2--|--3---3-3--3--3--3--|--0---0-0--3---3-3--|
-----------3---3-3--|--1---1-1--1--1--1--|--------------------|


  E.  S E  E  E  E     E.  S E  E.  S E     E.  S E  E  E  E   
--0---0-0--3--0-----|--0---0-0--3---3-3--|--1---1-1--1--1--1--|
--1---1-1--0--1-----|--1---1-1--0---0-0--|--1---1-1--1--1--1--|
--2---2-2--0--2-----|--2---2-2--0---0-0--|--2---2-2--2--2--2--|
--2---2-2--0--2-----|--2---2-2--0---0-0--|--3---3-3--3--3--3--|
--0---0-0--2--0-----|--0---0-0--2---2-2--|--3---3-3--3--3--3--|
-----------3--------|-----------3---3-3--|--1---1-1--1--1--1--|

Chorus
  E  S S S S E  S S S S    E  S S S S E  E  E     E  S S S S E  S S S S  
--0--0-0-0-0-0--0-0-0-0-|--0--0-0-0-0-3--0-----|--3--3-3-3-3-3--3-3-3-3-|
--1--1-1-1-1-1--1-1-1-1-|--1--1-1-1-1-0--1-----|--0--0-0-0-0-0--0-0-0-0-|
--2--2-2-2-2-0--0-0-0-0-|--2--2-2-2-2-0--2-----|--0--0-0-0-0-0--0-0-0-0-|
--2--2-2-2-2-2--2-2-2-2-|--2--2-2-2-2-0--2-----|--0--0-0-0-0-0--0-0-0-0-|
--0--0-0-0-0-3--3-3-3-3-|--0--0-0-0-0-2--0-----|--2--2-2-2-2-2--2-2-2-2-|
------------------------|-------------3--------|--3--3-3-3-3-3--3-3-3-3-|


  E  S S S S E  S S S S    E  S S S S E  S S S S    E  S S S S E  E  E   
--0--0-0-0-0-3--3-3-3-3-|--0--0-0-0-0-0--0-0-0-0-|--0--0-0-0-0-3--0-----|
--1--1-1-1-1-0--0-0-0-0-|--1--1-1-1-1-1--1-1-1-1-|--1--1-1-1-1-0--1-----|
--0--0-0-0-0-0--0-0-0-0-|--2--2-2-2-2-0--0-0-0-0-|--2--2-2-2-2-0--2-----|
--2--2-2-2-2-0--0-0-0-0-|--2--2-2-2-2-2--2-2-2-2-|--2--2-2-2-2-0--2-----|
--3--3-3-3-3-2--2-2-2-2-|--0--0-0-0-0-3--3-3-3-3-|--0--0-0-0-0-2--0-----|
-------------3--3-3-3-3-|------------------------|-------------3--------|


  E  S S S S E  S S S S    E  S S S S E  S S S S    E  S S S S E  S S S S  
--0--0-0-0-0-3--3-3-3-3-|--1--1-1-1-1-1--1-1-1-1-|--0--0-0-0-0-0--0-0-0-0-|
--1--1-1-1-1-0--0-0-0-0-|--1--1-1-1-1-1--1-1-1-1-|--1--1-1-1-1-1--1-1-1-1-|
--0--0-0-0-0-0--0-0-0-0-|--2--2-2-2-2-2--2-2-2-2-|--2--2-2-2-2-0--0-0-0-0-|
--2--2-2-2-2-0--0-0-0-0-|--3--3-3-3-3-3--3-3-3-3-|--2--2-2-2-2-2--2-2-2-2-|
--3--3-3-3-3-2--2-2-2-2-|--3--3-3-3-3-3--3-3-3-3-|--0--0-0-0-0-3--3-3-3-3-|
-------------3--3-3-3-3-|--1--1-1-1-1-1--1-1-1-1-|------------------------|


  E  S S S S E  E  E     E  S S S S E  S S S S    E  S S S S E  S S S S  
--0--0-0-0-0-3--0-----|--3--3-3-3-3-3--3-3-3-3-|--0--0-0-0-0-3--3-3-3-3-|
--1--1-1-1-1-0--1-----|--0--0-0-0-0-0--0-0-0-0-|--1--1-1-1-1-0--0-0-0-0-|
--2--2-2-2-2-0--2-----|--0--0-0-0-0-0--0-0-0-0-|--0--0-0-0-0-0--0-0-0-0-|
--2--2-2-2-2-0--2-----|--0--0-0-0-0-0--0-0-0-0-|--2--2-2-2-2-0--0-0-0-0-|
--0--0-0-0-0-2--0-----|--2--2-2-2-2-2--2-2-2-2-|--3--3-3-3-3-2--2-2-2-2-|
-------------3--------|--3--3-3-3-3-3--3-3-3-3-|-------------3--3-3-3-3-|


  E  S S S S E  S S S S    E  S S S S E  E  E     Q.     Q.      
--0--0-0-0-0-0--0-0-0-0-|--0--0-0-0-0-3--0-----|--0------3------|
--1--1-1-1-1-1--1-1-1-1-|--1--1-1-1-1-0--1-----|--1------0------|
--2--2-2-2-2-0--0-0-0-0-|--2--2-2-2-2-0--2-----|--0------0------|
--2--2-2-2-2-2--2-2-2-2-|--2--2-2-2-2-0--2-----|--2------0------|
--0--0-0-0-0-3--3-3-3-3-|--0--0-0-0-0-2--0-----|--3------2------|
------------------------|-------------3--------|---------3------|


  H.                              E.  S E  E.  S E     E  E  E   S S  S S S S  
--1------------|-------------|--------------------|-------------------------|
--1------------|-------------|--------------------|-----------10-8----------|
--2------------|-------------|------4-5--7---5-4--|-----4--5-------10-9-7-9-|
--3------------|-------------|--7-----------------|--7----------------------|
--3------------|-------------|--------------------|-------------------------|
--1------------|-------------|--------------------|-------------------------|


  E.  S E  E.  S E     E  E  E  E  S S E     E.  S E  E.  S E   
--------------------|---------------------|--------------------|
--------------------|---------------------|--------------------|
------4-5--4--------|-----4--5--4--5-4----|------4-5--7---5-4--|
--7------------7-5--|--7---------------7--|--7-----------------|
--------------------|---------------------|--------------------|
--------------------|---------------------|--------------------|


  E  E  E  S S S S S S    Q    E  E.  S E     E  E  E  E  E  E   
-----------------------|-------------------|--------------------|
-----------6-5---------|-------------------|--------------5--6--|
-----4--5------7-5-4-5-|-------5--4--------|-----4--5--7--------|
--7--------------------|--7-----------7-5--|--7-----------------|
-----------------------|-------------------|--------------------|
-----------------------|-------------------|--------------------|

Chorus
              |-3-|          |-3-|                                
  E.  S E  E  S S S E     E  S S S E  E  E  E     Q.     Q    E   
-----------------------|-----------------------|-----------------|
-----------------------|-----------------------|--8------5----6--|
------4-5--7--5-7-5-4--|--7--5-7-5-4-----------|-----------------|
--7--------------------|--------------5--7-----|-----------------|
-----------------------|-----------------------|-----------------|
-----------------------|-----------------------|-----------------|


     |-3-|       |-3-|                   |-3-|          |-3-|              
  E  S S S E  E  S S S E     E.  S E  E  S S S E     E  S S S E  E  E  E   
--------------------------|-----------------------|-----------------------|
--8--6-8-6-5--6--5-6-5-3--|-----------------------|-----------------------|
--------------------------|------4-5--7--5-7-5-4--|--7--5-7-5-4-----------|
--------------------------|--7--------------------|--------------5--7-----|
--------------------------|-----------------------|-----------------------|
--------------------------|-----------------------|-----------------------|


                          |-3-|          |-3-|                                
              E.  S E  E  S S S E     E  S S S E  E  E  E     Q.     Q    E   
-----|-----|-----------------------|----------------------|-----------------|
-----|-----|-----------------------|----------------------|--8------5----6--|
-----|-----|------4-5--7--5-7-5-4--|--7--5-7-5-4----------|-----------------|
-----|-----|--7--------------------|--------------5--7----|-----------------|
-----|-----|-----------------------|----------------------|-----------------|
-----|-----|-----------------------|----------------------|-----------------|


     |-3-|       |-3-|                   |-3-|          |-3-|              
  E  S S S E  E  S S S E     E.  S E  E  S S S E     E  S S S E  E  E  E   
--------------------------|-----------------------|-----------------------|
--8--6-8-6-5--6--5-6-5-3--|-----------------------|-----------------------|
--------------------------|------4-5--7--5-7-5-4--|--7--5-7-5-4-----------|
--------------------------|--7--------------------|--------------5--7-----|
--------------------------|-----------------------|-----------------------|
--------------------------|-----------------------|-----------------------|

           Verse 3
              PM PM PM PM PM PM PM PM PM PM PM PM PM PM PM PM  
              S  S  S  S  S  S  S  S  S  S  S  S  S  S  S  S   
-----|-----|--------------------------------------------------|
-----|-----|--------------------------------------------------|
-----|-----|--------------------------------------------------|
-----|-----|--------------------------------------------------|
-----|-----|--------------------------7--7--7--7--7--7--7--7--|
-----|-----|--5--5--5--5--5--5--5--5--------------------------|


  PM PM PM PM PM PM PM PM               
  S  S  S  S  S  S  S  S   E  E  E  E   
---------------------------------------|
---------------------------------------|
--------------------------10--9--7--9--|
---------------------------------------|
---------------------------------------|
--5--5--5--5--5--5--5--5---------------|


  PM PM PM PM PM PM PM PM PM PM PM PM PM PM PM PM                          
  S  S  S  S  S  S  S  S  S  S  S  S  S  S  S  S     H        E.  E.   E   
--------------------------------------------------|-----------------------|
--------------------------------------------------|-----------------------|
--------------------------------------------------|---------------9---10--|
--------------------------------------------------|--7--------7-----------|
--------------------------7--7--7--7--7--7--7--7--|-----------------------|
--5--5--5--5--5--5--5--5--------------------------|-----------------------|


  PM PM PM PM PM PM PM PM PM PM PM PM PM PM PM PM  
  S  S  S  S  S  S  S  S  S  S  S  S  S  S  S  S   
--------------------------------------------------|
--------------------------------------------------|
--------------------------------------------------|
--------------------------------------------------|
--------------------------7--7--7--7--7--7--7--7--|
--5--5--5--5--5--5--5--5--------------------------|


  PM PM PM PM PM PM PM PM               
  S  S  S  S  S  S  S  S   E  E  E  E   
---------------------------------------|
---------------------------------------|
--------------------------10--9--7--9--|
---------------------------------------|
---------------------------------------|
--5--5--5--5--5--5--5--5---------------|


  PM PM PM PM PM PM PM PM PM PM PM PM PM PM PM PM                          
  S  S  S  S  S  S  S  S  S  S  S  S  S  S  S  S     H        E.  E.   E   
--------------------------------------------------|-----------------------|
--------------------------------------------------|-----------------------|
--------------------------------------------------|---------------9---10--|
--------------------------------------------------|--7--------7-----------|
--------------------------7--7--7--7--7--7--7--7--|-----------------------|
--5--5--5--5--5--5--5--5--------------------------|-----------------------|


       PM PM     PM PM   PM PM    PM PM         PM PM     PM PM              
   E   S  S  E   S  S E  S  S  E  S  S      E   S  S  E   S  S  E  E  E  E   
----------------------------------------|-----------------------------------|
----------------------------------------|-----------------------------------|
----------------------9--9--9--9--9--9--|----------------------10--9--7--9--|
--10--10-10-10--10-10-------------------|--10--10-10-10--10-10--------------|
----------------------------------------|-----------------------------------|
----------------------------------------|-----------------------------------|


       PM PM     PM PM   PM PM    PM PM                          
   E   S  S  E   S  S E  S  S  E  S  S     H        E.  E.   E   
----------------------------------------|-----------------------|
----------------------------------------|-----------------------|
----------------------9--9--9--9--9--9--|---------------9---10--|
--10--10-10-10--10-10-------------------|--7--------7-----------|
----------------------------------------|-----------------------|
----------------------------------------|-----------------------|


       PM PM     PM PM   PM PM    PM PM         PM PM     PM PM              
   E   S  S  E   S  S E  S  S  E  S  S      E   S  S  E   S  S  E  E  E  E   
----------------------------------------|-----------------------------------|
----------------------------------------|-----------------------------------|
----------------------9--9--9--9--9--9--|----------------------10--9--7--9--|
--10--10-10-10--10-10-------------------|--10--10-10-10--10-10--------------|
----------------------------------------|-----------------------------------|
----------------------------------------|-----------------------------------|


       PM PM     PM PM   PM PM    PM PM                          
   E   S  S  E   S  S E  S  S  E  S  S     H        E.  E.   E   
----------------------------------------|-----------------------|
----------------------------------------|-----------------------|
----------------------9--9--9--9--9--9--|---------------9---10--|
--10--10-10-10--10-10-------------------|--7--------7-----------|
----------------------------------------|-----------------------|
----------------------------------------|-----------------------|


  SKYWARDS!!!                                                    
  H           E.  E.   E        H         H                      
--------------------------|------------------------|-----------||
--------------------------|--<>10~-----------------|-----------||
------------------9---10--|------------------------|-----------||
--7-----------7-----------|------------------------|-----------||
--------------------------|------------------------|-----------||
--------------------------|------------------------|-----------||
comments
We did not receive enough feedback on this tab! Please rate:
print report bad tab
1 2 3 4 5
I want to post or [tab]
guest
You may want to rate the tab now too:
select rating
Please do not post tabs as comments. Select "correction" instead!