Oops, an error
Loading. Please wait.

White Willow Bass Tab

ver1
ver1

Whole song

Interactive

More versions @911Tabs.com
175 views 3 this week
5 commentsread comments
1 2 3 4 5
excellent!
x 1
Autoscroll
+/-
esc
set tempo
stop
Contributor
Difficulty
intermediate
Hey! There's an official Ultimate Guitar app which is ideal
for learning songs when you're away from computer. Get the app
WARNING: You are trying to view
                                    content from Ultimate-Guitar.com
                                    in an unauthorized application,
                                    which is prohibited.

                                    Please use an official Ultimate
                                    Guitar Tabs application for iPhone,
                                    iPad or Android to access legitimate
                                    chords, guitar, bass, and drum tabs
                                    from Ultimate-Guitar.com database.

                                    Type "ultimate guitar tabs" in Apple
                                    App Store's or Android Market's
                                    search to find the application.
Hi there guys, 
I didn't tab this myself - i can do intros, but i'm not so good when it comes to whole songs. 
This was actually tabbed by Riccardo Munari & Dor Ziv. I just exported form the GP file :) 
Enjoy guys :) Great song

 White Willow                                   
                                                                     Elvenking
Bass


     W                   H        H           W                 
G||-------------------|--------------------|-------------------|
D||-------------------|--1-----------------|-------------------|
A||--3----------------|-----------1--------|--3----------------|
E||-------------------|--------------------|-------------------|


  S S E  S S E  E  E  Q       Q    Q    Q    Q       Q    Q    Q    Q     
---------------------------|----------------------|----------------------|
--1-1-1--------------------|----------------------|--1----1--------------|
---------1-1-1--------3----|-------3----3----3----|------------1----1----|
----------------3--3-------|----------------------|----------------------|


  Q    Q    Q    Q       S S E  S S E  E  E  Q     
----------------------|---------------------------|
----------------------|--1-1-1--------------------|
--3----3----3----3----|---------1-1-1--------3----|
----------------------|----------------3--3-------|


    S S S S S S S S S S S S S S S S    S S S S S S S S S S S S S S S S  
|-----------------------------------|----------------------------------|
|*----------------------------------|--1-1-1-1-1-1-1-1-----------------|
|*--3-3-3-3-3-3-3-3-3-3-3-3-3-3-3-3-|------------------1-1-1-1-1-1-1-1-|
|-----------------------------------|----------------------------------|


  S S S S S S S S S S S S S S S S    S S E  S S E  E  E  Q       
----------------------------------|----------------------------||
----------------------------------|--1-1-1--------------------*||
--3-3-3-3-3-3-3-3-3-3-3-3-3-3-3-3-|---------1-1-1--------3----*||
----------------------------------|----------------3--3--------||


  E  S S E  Q.     Q       E  S S E  Q.     Q       E  S S E  Q.     Q     
------------------------|------------------------|------------------------|
------------------------|--1--1-1-1--1------1----|------------------------|
--3--3-3-3--3------3----|------------------------|------------------------|
------------------------|------------------------|--4--4-4-4--4------4----|


  E  E  E  E  S S E  S S E     E  S S E  Q.     Q       E  S S E  Q.     Q     
----------------------------|------------------------|------------------------|
----------------------------|------------------------|--1--1-1-1--1------1----|
--1--1--1--1--1-1-1--1-1-1--|--3--3-3-3--3------3----|------------------------|
----------------------------|------------------------|------------------------|


  E  S S E  Q.     Q       E  E  E  E  S S E  S S E     E  E  E  E  H         
------------------------|----------------------------|-----------------------|
------------------------|----------------------------|-----------------------|
------------------------|--1--1--1--1--1-1-1--1-1-1--|-----------------------|
--4--4-4-4--4------4----|----------------------------|--3-----3-----3--------|


  |--3--|  |--3--|  |--3--|  |--3--|                           
  E  E  E  E  E  E  E  E  E  E  E  E     E  E  E  E  H         
--------------------------------------|-----------------------|
--------------------------------------|-----------------------|
--3--3--3--3--3--3--3--3--3--3--3--3--|-----------------------|
--------------------------------------|--3-----3-----3--------|


  |--3--|  |--3--|  |--3--|  |--3--|                           
  E  E  E  E  E  E  E  E  E  E  E  E     E  E  E  E  H         
--------------------------------------|-----------------------|
--------------------------------------|-----------------------|
--3--3--3--3--------3--3--3--3--------|-----------------------|
--------------------------------------|--3-----3-----3--------|


  |--3--|  |--3--|  |--3--|  |--3--|     |--3--|  |--3--|  |--3--|  |--3--|   
  E  E  E  E  E  E  E  E  E  E  E  E     E  E  E  E  E  E  E  E  E  E  E  E   
--------------------------------------|--------------------------------------|
--------------------------------------|--------------------------------------|
--3--3--3--3--3--3--3--3--3--3--3--3--|--------------------1--1--1--1--1--1--|
--------------------------------------|--4--4--4--4--4--4--------------------|


  Q.     Q.     Q       Q.     Q    E  E  E     Q.     E  E  E  E  E   
---------------------|-----------------------|------------------------|
---------------------|-----------------------|------------------------|
--3------3------3----|--1------1----1-----1--|------------------------|
---------------------|-----------------3-----|--4------4--4--4--4--4--|


  E  E  E  E  E  E  E  E     E  E  E  E  E  E  E  E   
--------------5--5--------|--------------------------|
--------------------------|--------------------------|
--3--3-----3--------3--1--|--3--3--3--3--3--3--3--3--|
--------------------------|--------------------------|


  E  E  E  E  E  E  E  E     E  E  E  E  E  E  E  E   
--------------------------|--------------------------|
--------------------------|--------------------------|
--1--1--1--1--1--1--1--1--|--------------------------|
--------------------------|--1--1--1--1--1--1--1--1--|


  S S S S S S S S S S S S S S S S    S S S S S S S S S S S S S S S S  
----------------------------------|----------------------------------|
----------------------------------|--1-1-1-1-1-1-1-1-----------------|
--3-3-3-3-3-3-3-3-3-3-3-3-3-3-3-3-|------------------1-1-1-1-1-1-1-1-|
----------------------------------|----------------------------------|


  S S S S S S S S S S S S S S S S    S S E  S S E  E  E  Q     
----------------------------------|---------------------------|
----------------------------------|--1-1-1--------------------|
--3-3-3-3-3-3-3-3-3-3-3-3-3-3-3-3-|---------1-1-1--------3----|
----------------------------------|----------------3--3-------|


  S S S S S S S S S S S S S S S S    S S S S S S S S S S S S S S S S  
----------------------------------|----------------------------------|
----------------------------------|--1-1-1-1-1-1-1-1-----------------|
--3-3-3-3-3-3-3-3-3-3-3-3-3-3-3-3-|------------------1-1-1-1-1-1-1-1-|
----------------------------------|----------------------------------|


  S S S S S S S S S S S S S S S S    S S E  S S E  E  E  Q     
----------------------------------|---------------------------|
----------------------------------|--1-1-1--------------------|
--3-3-3-3-3-3-3-3-3-3-3-3-3-3-3-3-|---------1-1-1--------3----|
----------------------------------|----------------3--3-------|


  E  S S E  Q.     Q       E  S S E  Q.     Q       E  S S E  Q.     Q     
------------------------|------------------------|------------------------|
------------------------|--1--1-1-1--1------1----|------------------------|
--3--3-3-3--3------3----|------------------------|------------------------|
------------------------|------------------------|--4--4-4-4--4------4----|


  E  E  E  E  S S E  S S E     E  S S E  Q.     Q       E  S S E  Q.     Q     
----------------------------|------------------------|------------------------|
----------------------------|------------------------|--1--1-1-1--1------1----|
--1--1--1--1--1-1-1--1-1-1--|--3--3-3-3--3------3----|------------------------|
----------------------------|------------------------|------------------------|


  E  S S E  Q.     Q       E  E  E  E  S S E  S S E     E  E  E  E  H         
------------------------|----------------------------|-----------------------|
------------------------|----------------------------|-----------------------|
------------------------|--1--1--1--1--1-1-1--1-1-1--|-----------------------|
--4--4-4-4--4------4----|----------------------------|--3-----3-----3--------|


  |--3--|  |--3--|  |--3--|  |--3--|                           
  E  E  E  E  E  E  E  E  E  E  E  E     E  E  E  E  H         
--------------------------------------|-----------------------|
--------------------------------------|-----------------------|
--3--3--3--3--3--3--3--3--3--3--3--3--|-----------------------|
--------------------------------------|--3-----3-----3--------|


  |--3--|  |--3--|  |--3--|  |--3--|                           
  E  E  E  E  E  E  E  E  E  E  E  E     E  E  E  E  H         
--------------------------------------|-----------------------|
--------------------------------------|-----------------------|
--3--3--3--3--------3--3--3--3--------|-----------------------|
--------------------------------------|--3-----3-----3--------|


  |--3--|  |--3--|  |--3--|  |--3--|     |--3--|  |--3--|  |--3--|  |--3--|   
  E  E  E  E  E  E  E  E  E  E  E  E     E  E  E  E  E  E  E  E  E  E  E  E   
--------------------------------------|--------------------------------------|
--------------------------------------|--------------------------------------|
--3--3--3--3--3--3--3--3--3--3--3--3--|--------------------1--1--1--1--1--1--|
--------------------------------------|--4--4--4--4--4--4--------------------|


  Q.     Q.     Q       Q.     Q    E  E  E     Q.     E  E  E  E  E   
---------------------|-----------------------|------------------------|
---------------------|-----------------------|------------------------|
--3------3------3----|--1------1----1-----1--|------------------------|
---------------------|-----------------3-----|--4------4--4--4--4--4--|


  E  E  E  E  E  E  E  E     E  E  E  E  E  E  E  E   
--------------5--5--------|--------------------------|
--------------------------|--------------------------|
--3--3-----3--------3--1--|--3--3--3--3--3--3--3--3--|
--------------------------|--------------------------|


  E  E  E  E  E  E  E  E     E  E  E  E  E  E  E  E   
--------------------------|--------------------------|
--------------------------|--------------------------|
--1--1--1--1--1--1--1--1--|--------------------------|
--------------------------|--1--1--1--1--1--1--1--1--|


  E  E  E  E  E  E  E  E     E  E  E  E  E  E  E  E     Q.     E  Q.     E   
--------------------------|--0--1--0--3--1--0--------|----------------------|
--------------------------|--------------------3--1--|----------------------|
--3--3--3--3--3--3--3--3--|--------------------------|--3-------------------|
--------------------------|--------------------------|---------3--3------4--|


  Q    H.              E  E  E  E  E  E  E  E     E  E  E  E  E  E  E  E   
--------------------|--------------------------|--0--1--0--3--1--0--------|
--------------------|--------------------------|--------------------3--1--|
-------3------------|--3--3--3--3--3--3--3--3--|--------------------------|
--4-----------------|--------------------------|--------------------------|


  Q.     E  Q.     E     Q    H.              E  E  E  E  E  E  E  E   
----------------------|--------------------|--------------------------|
----------------------|--------------------|--------------------------|
--3-------------------|-------3------------|--------------------------|
---------3--3------4--|--4-----------------|--3--3--3--3--3--3--3--3--|


  E  E  E  E  E  E  E  E     E  E  E  E  E  E  E  E   
--------------------------|--------------------------|
--------------------------|--------------------------|
--3--3--3--3--3--3--3--3--|--------------------------|
--------------------------|--3--3--3--3--3--3--3--3--|


  E  E  E  E  E  E  E  E     E  E  E  E  E  E  E  E   
--------------------------|--------------------------|
--------------------------|--------------------------|
--3--3--3--3--3--3--3--3--|--------------------------|
--------------------------|--3--3--3--3--3--3--3--3--|


  E  E  E  E  E  E  E  E     E  E  E  E  E  E  E  E   
--------------------------|--------------------------|
--------------------------|--------------------------|
--3--3--3--3--3--3--3--3--|--------------1--1--1--1--|
--------------------------|--4--4--4--4--------------|


    S S S S S S S S S S S S S S S S    S S S S S S S S S S S S S S S S  
|-----------------------------------|----------------------------------|
|*----------------------------------|----------------------------------|
|*--3-3-3-3-3-3-3-3-3-3-3-3-3-3-3-3-|--3-3-3-3-3-3-3-3-3-3-3-3-3-3-3-3-|
|-----------------------------------|----------------------------------|


  S S S S S S S S S S S S S S S S    E  E  E  E  Q    Q       
----------------------------------|-------------------------||
----------------------------------|------------------------*||
--3-3-3-3-3-3-3-3-3-3-3-3-3-3-3-3-|--1--1-----3--3----1----*||
----------------------------------|-------------------------||


   E  E  E  E  E  E  E  E     E  E  E  E  E  E  E  E   
---------------------------|--------------------------|
*--------------------------|--------------------------|
*--3--3--3--3--3--3--3--3--|--1--1--1--1--1--1--1--1--|
---------------------------|--------------------------|


  E  E  E  E  E  E  E  E     E  E  E  E  E  E  E  E   
--------------------------|--1--1--1--1--1--1--1--1--|
--------------------------|--------------------------|
--3--3--3--3--3--3--3--3--|--------------------------|
--------------------------|--------------------------|


  E  E  E  E  E  E  E  E     E  E  E  E  Q    Q     
--------------------------|--0---------------------|
--------------------------|-----3--1--0-------3----|
--3--3--3--3--3--3--3--3--|--------------1---------|
--------------------------|------------------------|


                                                     |----3----|       
  S S S S S S S S S S S S S S S S    S S S S S S S S Q    Q    Q       
----------------------------------|------------------1----0----------||
--1-1-1-1-1-1-1-1-1-1-1-1-1-1-1-1-|--1-1-1-1-1-1-1-1-----------3----*||
----------------------------------|---------------------------------*||
----------------------------------|----------------------------------||


   H        H           H        H           Q.     H        E   
---------------------|--------------------|---------------------|
*-----------3--------|--------------------|---------------------|
*--3-----------------|--3-----------------|---------8--------L--|
---------------------|-----------3--------|--5------------------|


  Q.     H        E       S S S S S S S S S S S S S S S S  
----------------------||----------------------------------|
---------------------*||----------------------------------|
--3------------------*||--5-5-5-5-5-5-5-5-----------------|
---------3--------L---||------------------3-3-3-3-3-3-3-3-|


  S S S S S S S S S S S S S S S S    S S S S S S S S S S S S S S S S  
----------------------------------|----------------------------------|
----------------------------------|----------------------------------|
--5-5-5-5-5-5-5-5-----------------|--2-2-2-2-2-2---------------------|
------------------5-5-5-5-5-5-5-5-|--------------3-3-3-3-3-3-3-3-3-3-|


  S S S S S S S S S S S S S S S S    S S S S S S S S S S S S S S S S  
----------------------------------|----------------------------------|
----------------------------------|------------------3-3-3-3-3-3-3-3-|
--5-5-5-5-5-5---------------------|--3-3-3-3-3-3-3-3-----------------|
--------------5-5-5-5-5-5-5-5-5-5-|----------------------------------|


  S S S S S S S S S S S S S S S S    S S S S S S S S S S S S S S S S  
----------------------------------|----------------------------------|
----------------------------------|----------------------------------|
--3-3-3-3-3-3-3-3-----------------|----------------------------------|
------------------3-3-3-3-3-3-3-3-|--5-5-5-5-5-5-1-1-1-1-1-1-1-1-1-1-|


  S S S S S S S S S S S S S S S S    Q    H.            
----------------------------------|--------------------|
----------------------------------|--------------------|
--3-3-3-3-3-3---------------------|--------------------|
--------------3-3-3-3-3-3-3-3-3-3-|--5-----------------|


       |--3--|       |--3--|          |--3--|       |--3--|   
  Q    E  E  E  Q    E  E  E     Q    E  E  E  Q    E  E  E   
------------------------------|------------------------------|
--3----3--3--3--3----3--3--3--|--5----5--5--5--5----5--5--5--|
------------------------------|------------------------------|
------------------------------|------------------------------|


                         |--3--|  |--3--|  |--3--|  |--3--|   
  Q    Q    Q    Q       E  E  E  E  E  E  E  E  E  E  E  E   
-----------------4----|--------------------------------------|
--2----2----0---------|--------------------------------------|
----------------------|--0--0--0--0--0--0--0--0--0--0--0--0--|
----------------------|--------------------------------------|


  |--3--|  |--3--|  |--3--|  |--3--|     |--3--|  |--3--|  |--3--|  |--3--|   
  E  E  E  E  E  E  E  E  E  E  E  E     E  E  E  E  E  E  E  E  E  E  E  E   
--------------------------------------|--------------------------------------|
--------------------------------------|--------------------------------------|
--------------------------------------|--3--3--3--3--3--3--3--3--3--3--3--3--|
--3--3--3--3--3--3--3--3--3--3--3--3--|--------------------------------------|


  |--3--|  |--3--|  |--3--|  |--3--|                       
  E  E  E  E  E  E  E  E  E  E  E  E     W                 
--------------------------------------|-------------------|
--------------------------------------|-------------------|
--1--1--1--1--1--1--1--1--5--3--L--L--|--5----------------|
--------------------------------------|-------------------|


  |--3--|  |--3--|  |--3--|  |--3--|     |--3--|  |--3--|                      
  E  E  E  E  E  E  E  E  E  E  E  E     E  E  E  E  E  E     Q    E  Q    E   
--------------------------------------|--------------------|------------------|
--2--3--2-----------2--3--2-----------|--------------------|------------------|
-----------5--3--5-----------5--3--5--|--6--5--3--2-----2--|--3----3--3----3--|
--------------------------------------|--------------3-----|------------------|


  Q    E  Q    E     Q    E  Q    E     Q    E  E  E  E     Q    E  Q    E   
------------------|------------------|-------------------|------------------|
------------------|------------------|-------------------|------------------|
--1----1--3----3--|--1----1--1----1--|--3----3--1--1--1--|--3----3--1----1--|
------------------|------------------|-------------------|------------------|


  Q    E  Q    E     Q    E  Q    E     E  E  E  E  Q     
------------------|------------------|-------------------|
------------------|--3----3--1----1--|-------------------|
--3----3--1----1--|------------------|--1--1--1--3-------|
------------------|------------------|-------------------|


  E  S S S S E  S S S S    E  S S S S E  S S S S    E  S S S S E  S S S S  
------------------------|------------------------|------------------------|
------------------------|------------------------|------------------------|
--3--3-3-3-3-3--3-3-3-3-|--1--1-1-1-1-3--3-3-3-3-|--1--1-1-1-1-1--1-1-1-1-|
------------------------|------------------------|------------------------|


  E  S S S S E  S S S S    E  S S S S E  S S S S    E  S S S S E  S S S S  
------------------------|------------------------|------------------------|
------------------------|------------------------|------------------------|
--3--3-3-3-3-1--1-1-1-1-|--3--3-3-3-3-1--1-1-1-1-|--3--3-3-3-3-1--1-1-1-1-|
------------------------|------------------------|------------------------|


  E  S S S S E  S S S S    E  E  E  E  Q       Q    E  Q    E     Q    E   
------------------------|-------------------|------------------|----------|
--3--3-3-3-3-1--1-1-1-1-|-------------------|------------------|----------|
------------------------|--1--1--1--3-------|--8----8--6----6--|----------|
------------------------|-------------------|------------------|--6----6--|


    E  E  E  E  E  E  E  E     E  E  E  E  E  E  E  E   
|---------------------------|--------------------------|
|*--------------------------|--------------------------|
|*--3--3--3--3--3--3--3--3--|--1--1--1--1--1--1--1--1--|
|---------------------------|--------------------------|


  E  E  E  E  E  E  E  E     E  E  E  E  E  E  E  E   
--------------------------|--------------------------|
--------------------------|--------------------------|
--3--3--3--3--3--3--3--3--|--------------------------|
--------------------------|--4--4--4--4--4--4--4--4--|


  E  E  E  E  E  E  E  E     E  E  E  E  Q    Q     
--------------------------|------------------------|
--------------------------|--5---------------------|
--3--3--3--3--3--3--3--3--|-----8--6--5-------8----|
--------------------------|--------------6---------|


                                                     |----3----|       
  S S S S S S S S S S S S S S S S    S S S S S S S S Q    Q    Q       
----------------------------------|----------------------------------||
----------------------------------|------------------6----5---------*||
--6-6-6-6-6-6-6-6-6-6-6-6-6-6-6-6-|--6-6-6-6-6-6-6-6-----------8----*||
----------------------------------|----------------------------------||


   S S S S S S S S S S S S S S S S    S S S S S S S S S S S S S S S S  
-----------------------------------|----------------------------------|
*----------------------------------|----------------------------------|
*--3-3-3-3-3-3-3-3-3-3-3-3-3-3-3-3-|--1-1-1-1-1-1-1-1-1-1-1-1-1-1-1-1-|
-----------------------------------|----------------------------------|


  S S S S S S S S S S S S S S S S    S S S S S S S S S S S S S S S S  
----------------------------------|----------------------------------|
----------------------------------|----------------------------------|
--3-3-3-3-3-3-3-3-3-3-3-3-3-3-3-3-|----------------------------------|
----------------------------------|--4-4-4-4-4-4-4-4-4-4-4-4-4-4-4-4-|


  S S S S S S S S S S S S S S S S    E  E  E  E  Q    Q     
----------------------------------|------------------------|
----------------------------------|--5---------------------|
--3-3-3-3-3-3-3-3-3-3-3-3-3-3-3-3-|-----8--6--5-------8----|
----------------------------------|--------------6---------|


                                                     |----3----|       
  S S S S S S S S S S S S S S S S    S S S S S S S S Q    Q    Q       
----------------------------------|----------------------------------||
----------------------------------|------------------6----5---------*||
--6-6-6-6-6-6-6-6-6-6-6-6-6-6-6-6-|--6-6-6-6-6-6-6-6-----------8----*||
----------------------------------|----------------------------------||


   H        H           H        H           H        H         
---------------------|--------------------|--------------------|
*--------------------|--------------------|--------------------|
*--3-----------------|--------------------|--3-----------------|
------------3--------|--4--------6--------|-----------3--------|


  Q    Q    Q    Q     4x  H        H           Q    Q       W                 
-----------------------||--------------------|------------|-------------------|
----------------------*||--------------------|------------|-------------------|
-----------------3----*||--3-----------------|------------|--3----------------|
--4----6----3----------||-----------3--------|--4----6----|-------------------|
comments
We did not receive enough feedback on this tab! Please rate:
print report bad tab
1 2 3 4 5
5 comments total. Showing first comments.
0 reply
6METAL6BASSIST6 wrote on January 14 2014, 02:30 am

Amazing! One of my top 5 favorites by this band. 5*. Could you maybe do The Regality Dance or The Wanderer?

0 reply
AcousticMetal99 wrote on February 1 2014, 04:00 pm

I'd love to learn the Wanderer, but yup, as your next comment pointed out.. Could maybe try to contact the ones who tabbed the other EK songs? Either that, or at some point I may give it a go and try to figure it - chords wise anyway.

0 reply
6METAL6BASSIST6 wrote on January 14 2014, 02:48 am

Ya know what? I didn't bother to read the not at the top..ah well thanks for putting it into a text tab lol.

I want to post or [tab]
guest
You may want to rate the tab now too:
select rating
Please do not post tabs as comments. Select "correction" instead!