Oops, an error
Loading. Please wait.

Dear Death Part 2 Tab

ver2
ver2

Whole song

More versions @911Tabs.com
1,867 views 9 this week
2 commentsread comments
1 2 3 4 5
excellent!
x 1
Autoscroll
+/-
esc
set tempo
stop
Contributor
Difficulty
Tuning
novice
C# G# C# F# A# D#
Hey! There's an official Ultimate Guitar app which is ideal
for learning songs when you're away from computer. Get the app
WARNING: You are trying to view
                                    content from Ultimate-Guitar.com
                                    in an unauthorized application,
                                    which is prohibited.

                                    Please use an official Ultimate
                                    Guitar Tabs application for iPhone,
                                    iPad or Android to access legitimate
                                    chords, guitar, bass, and drum tabs
                                    from Ultimate-Guitar.com database.

                                    Type "ultimate guitar tabs" in Apple
                                    App Store's or Android Market's
                                    search to find the application.
-------------------------------------------------------------------------------
                             DEAR DEATH pt 2 - Emery
-------------------------------------------------------------------------------
Tabbed by: b14ckn36r0

Tuning: Drop C# 
Play with mid-heavy Distortion, or enjoy Acoustic

 It's not perfect but it's closer than anyone else has gotten before. Hope you 
enjoy this great song.-J. White  
                   
                              Verse 1,2 (0:00/0:22)
    Time is running out...                   As you die, die, die in this bed
       not making a sound...                 it has all come crashing...
d#|----------------------------------------------------------------------------|
A#|----------------------------------------------------------------------------|
F#|----------------------------------------------------------------------------|
C#|-----------------0----7-0-0----7-0-0----7-0-0----12-12-1212-12-1212-12121212|
G#|-----------------0----7-0-0----7-0-0----7-0-0----9--9--9-9--9--9-9--9-9-9-9-|
C#|-----------------0----7-0-0----7-0-0----7-0-0----9--9--9-9--9--9-9--9-9-9-9-|x2
                                              (twelves, just a strum pattern)
    down, to be   here, and                watch you breathe your last
 so helpless, to  stop you from slipping a-way so fast, oh God are you...
d#|---------------------------------------------------------------------------|
A#|---------------------------------------------------------------------------|
F#|---------------------------------------------------------------------------|
C#|-5-------------12-----------------------11---------------------------------|
G#|-2-------------9------------------------7----------------------------------|
C#|-2-------------9------------------------7----------------------------------|x2

 Repeat first two bars with the second verse lyrics, then
                               
                                 Chorus (0:44)
      I know this,  I failed to say   (I'm sinking by your side)
d#|---------------------------------------------------------------------------|
A#|---------------------------------------------------------------------------|
F#|---------------------------------------------------------------------------|
C#|-12--111111----9---7-7-7-----4--4--4-4--4--4-4--4-4-4-4--------------------|
G#|-9---9-9-9-----5---5-5-5-----0--0--0-0--0--0-0--0-0-0-0--------------------|
C#|-9---9-9-9-----5---5-5-5-----0--0--0-0--0--0-0--0-0-0-0--------------------|x3
 (twelve, elevens)                (same strum pattern)

     Kick off our shoes and     dance with a ghost of         you
d#|---------------------------------------------------------------------------|
A#|---------------------------------------------------------------------------|
F#|---------------------------------------------------------------------------|
C#|-12--111111----9---7-7-7------5--5---5--5--5-5--5-5-5-5--------------------|
G#|-9---9-9-9-----5---5-5-5------2--2---2--2--2-2--2-2-2-2--------------------|
C#|-9---9-9-9-----5---5-5-5------2--2---2--2--2-2--2-2-2-2--------------------|
 (twelve, elevens)              (similar strum pattern, listen for it)

                            Verse 3 (1:06)
           ghost of you                   who could tease me & leave begging
          for the a-buse                 you're the only one I
d#|----------------------------------------------------------------------------|
A#|----------------------------------------------------------------------------|
F#|----------------------------------------------------------------------------|
C#|-----------------4----5-4-0----5-4-0----5-4-0----12-12-1212-12-1212-12121212|
G#|-----------------0----0-0-0----0-0-0----0-0-0----9--9--9-9--9--9-9--9-9-9-9-|
C#|-------------------------------------------------9--9--9-9--9--9-9--9-9-9-9-|x2
                   (lead part)                     (first strum pattern)

  I knew that could tame me        and make me who I am
but now    it's all fading and there's nothing left of all my plans
d#|---------------------------------------------------------------------------|
A#|---------------------------------------------------------------------------|
F#|---------------------------------------------------------------------------|
C#|-5---------------12-----------------11-------------------------------------|
G#|-2---------------9------------------7--------------------------------------|
C#|-2---------------9------------------7--------------------------------------|x2

                             Chorus (1:28)
      I know this,  I failed to say   (I'm sinking by your side)
d#|---------------------------------------------------------------------------|
A#|---------------------------------------------------------------------------|
F#|---------------------------------------------------------------------------|
C#|-12--111111----9---7-7-7-----4--4--4-4--4--4-4--4-4-4-4--------------------|
G#|-9---9-9-9-----5---5-5-5-----0--0--0-0--0--0-0--0-0-0-0--------------------|
C#|-9---9-9-9-----5---5-5-5-----0--0--0-0--0--0-0--0-0-0-0--------------------|x3
 (twelve, elevens)                (first strum pattern)

     Kick off our shoes and
d#|-------------------------|
A#|-------------------------|
F#|-------------------------|
C#|-12--111111----9---7-7-7-|
G#|-9---9-9-9-----5---5-5-5-|
C#|-9---9-9-9-----5---5-5-5-|

                            Post-Chorus (1:47)
    Dance,         let's dance a-gain, we'll turn up our
d#|--------------------------------------------------------|
A#|--------------------------------------------------------|
F#|--------------------------------------------------------|
C#|-2--2---2--2--2-2--2-2-2-2----2--2---2--2--2-2--2-2-2-2-|
G#|-2--2---2--2--2-2--2-2-2-2----2--2---2--2--2-2--2-2-2-2-|
C#|-2--2---2--2--2-2--2-2-2-2----2--2---2--2--2-2--2-2-2-2-|
   (second strum pattern)

    Sleeves,         I know just where to begin
    Dance,         let's dance a-gain, we could
d#|---------------------------------------------------------------------------|
A#|---------------------------------------------------------------------------|
F#|---------------------------------------------------------------------------|
C#|-2--2---2--2--2-2--2-2-2-2----4--4-4--4-4--4-4-----------------------------|
G#|-2--2---2--2--2-2--2-2-2-2----0--0-0--0-0--0-0-----------------------------|
C#|-2--2---2--2--2-2--2-2-2-2----0--0-0--0-0--0-0-----------------------------|x2

    Find ourselves be-           fore this happened
d#|---------------------------------------------------------------------------|
A#|---------------------------------------------------------------------------|
F#|---------------------------------------------------------------------------|
C#|-2--2---2--2--2-2--2-2-2-2----4--4---4--4--4-4--4-4-4-4--------------------|
G#|-2--2---2--2--2-2--2-2-2-2----4--4---4--4--4-4--4-4-4-4--------------------|
C#|-2--2---2--2--2-2--2-2-2-2----4--4---4--4--4-4--4-4-4-4--------------------|

                                  Bridge (2:09)
 These words of mine.....But still they find...
d#|--------------------------------------------------|
A#|--------------------------------------------------|
F#|--------------------------------------------------|
C#|-12-121212-121212-121212--7--7-7-7--7-7-7--7-7-7--|
G#|-9--9-9-9--9-9-9--9-9-9---4--4-4-4--4-4-4--4-4-4--|
C#|-9--9-9-9--9-9-9--9-9-9---4--4-4-4--4-4-4--4-4-4--|

It's just to break... ...has been     crushing me
d#|-------------------------------------------------------------|
A#|-------------------------------------------------------------|
F#|--------------------------7-7-7-7-7-7-7-7---6-6-6-6-6-6-6-6--|
C#|-5--5-5-5--5-5-5--5-5-5---7-7-7-7-7-7-7-7---7-7-7-7-7-7-7-7--|
G#|-2--2-2-2--2-2-2--2-2-2---5-5-5-5-5-5-5-5---4-4-4-4-4-4-4-4--|
C#|-2--2-2-2--2-2-2--2-2-2--------------------------------------|

    Half of me...     ...and half is screaming...
d#|--------------------------------------------------|
A#|--------------------------------------------------|
F#|--------------------------------------------------|
C#|-12-121212-121212-121212--7--7-7-7--7-7-7--7-7-7--|
G#|-9--9-9-9--9-9-9--9-9-9---4--4-4-4--4-4-4--4-4-4--|
C#|-9--9-9-9--9-9-9--9-9-9---4--4-4-4--4-4-4--4-4-4--|

    Finally asking            now, will you
d#|-----------------------------------------------------------|
A#|-----------------------------------------------------------|
F#|-----------------------------------------------------------|
C#|-5--5-5-5--5-5-5--5-5-5----11111111111111111111111111111111|
G#|-2--2-2-2--2-2-2--2-2-2----7-7-7-7-7-7-7-7-7-7-7-7-7-7-7-7-|
C#|-2--2-2-2--2-2-2--2-2-2----7-7-7-7-7-7-7-7-7-7-7-7-7-7-7-7-|
                             (elevens, up/down strum for 2 measures)

                           Finale (2:30)
                (6/8 time, same tab as Dear Death pt. 1)
  Just hear me out,             this was all my                   fault, now
you brought me death,           and it's everything             I wanted
d#|--------------------------------------------------------------------------|
A#|--------------------------------------------------------------------------|
F#|--------------------------------------------------------------------------|
C#|------------12-12121212--11-11111111--9--9-9-9-9--7--7-7-7-7---4--4-4-4-4-|
G#|------------9--9-9-9-9---9--9-9-9-9---5--5-5-5-5--5--5-5-5-5---0--0-0-0-0-|
C#|------------9--9-9-9-9---9--9-9-9-9---5--5-5-5-5--5--5-5-5-5---0--0-0-0-0-|-----| x2
                                                                                   |
------------------------------------|                                              |
------------------------------------|                                              |
------------------------------------| ---------------------------------------------|
-4--4-4-4-4--4--4-4-4-4--4--4-4-4-4-|
-0--0-0-0-0--0--0-0-0-0--0--0-0-0-0-|
-0--0-0-0-0--0--0-0-0-0--0--0-0-0-0-|


      It's the wrong             side of fear that's kept me       out
d#|-------------------------------------------------------------------|
A#|-------------------------------------------------------------------|
F#|-------------------------------------------------------------------|
C#|------------12-12121212--11-11111111--9--9-9-9-9--7--7-7-7-7----5--|
G#|------------9--9-9-9-9---9--9-9-9-9---5--5-5-5-5--5--5-5-5-5----2--|
C#|------------9--9-9-9-9---9--9-9-9-9---5--5-5-5-5--5--5-5-5-5----2--|

End

Lyrics:
Time is running out as you die, die, die in this bed not making a sound.
It has all come crashing down to be here, and watch you breathe your last.
So helpless to stop you from slipping away so fast.

Oh, God, are you listening now?
As this cancer dances through her, and then takes a bow.
It won't disappoint the crowd, 
whose words are a curse, 
as I hear them one-by-one.
Please pull the string, and I come undone.

I know this. I failed to say. I'm sinking by your side.
You're worth this. I wouldn't trade a day to not have gone through this
So many days I've been blind.
I want to stop and rewind.
Kick off our shoes and dance with the ghost of you.

Who could tease me and leave me begging for the abuse?
You're the only I knew that could tame me, and make me who I am.
But now, there's self-blaming and there's nothing left of all my plans.

I know this. I failed to say. I'm sinking by your side.
You're worth this. I wouldn't trade a day to not have gone through this.
So many days I've been blind.
I want to stop and rewind.
Kick off our shoes and dance..

Let's dance again.
We'll turn up our sleeves.
I know just where to begin.
Dance, let's dance again.
We could find ourselves before this happens...

Words of mine are trite and simple shame.
Still we find a place in everything.
It's just to break the silence that has been crushing me.
Half of me is dead, already gone.
Half is screaming everyone is wrong.
Finally asking now, will you just hear me out?

This was all my fault.
You brought me death, and it's everything I wanted.
It's the wrong side of fear that kept me out.
comments
We did not receive enough feedback on this tab! Please rate:
print report bad tab
1 2 3 4 5
2 comments total.
0 reply
helpweresunk wrote on February 19 2011, 07:57 pm

I think this is right, at least mostly. The only problem is, Dear Death Part 1 is in C# standard, but if you transpose this into C# standard, it sounds good. Could you possibly transpose it? I don't have good software for that kind of stuff, but it would be really good to leave it in the same tuning.

0 reply
thefletch13 wrote on October 24 2011, 07:14 pm

Dear Death Part 1 may be in C# standard, but if you use the tab he put as the finale for Dear Death 1, it still sounds right. I think I may try to write a tab for both in standard C#

I want to post or [tab]
guest
You may want to rate the tab now too:
select rating
Please do not post tabs as comments. Select "correction" instead!