Oops, an error
Loading. Please wait.

My World Bass Tab

938 views 6 this week
no commentswrite comment
1 2 3 4 5
please rate
Autoscroll
+/-
esc
set tempo
stop
Contributor
Difficulty
Tuning
novice
C G C F A D
WARNING: You are trying to view
                                    content from Ultimate-Guitar.com
                                    in an unauthorized application,
                                    which is prohibited.

                                    Please use an official Ultimate
                                    Guitar Tabs application for iPhone,
                                    iPad or Android to access legitimate
                                    chords, guitar, bass, and drum tabs
                                    from Ultimate-Guitar.com database.

                                    Type "ultimate guitar tabs" in Apple
                                    App Store's or Android Market's
                                    search to find the application.
                                   My World                                     


                                                                        Emigrate
Bass



     W                   W                   W                 
F||-------------------|-------------------|-------------------|
C||-------------------|-------------------|-------------------|
G||-------------------|-------------------|-------------------|
C||-------------------|-------------------|-------------------|


  W                   W                   W                   W                 
-------------------|-------------------|-------------------|-------------------|
-------------------|-------------------|-------------------|-------------------|
-------------------|-------------------|-------------------|-------------------|
-------------------|-------------------|-------------------|-------------------|


  H.           E  E     E  E  E  E  S S E  E  E     E  E  E  E  S S E  S S E   
---------------------|---------------------------|----------------------------|
---------------------|---------------------------|----------------------------|
---------------------|---------------------------|----------------------------|
---------------0-----|--3--0--0--0--0-0-0--0--3--|--L--5--0--0--0-0-0--0-0-0--|


  E  E  E  E  S S E  E  E     E  E  E  E  S S E  S S E   
---------------------------|----------------------------|
---------------------------|----------------------------|
---------------------------|----------------------------|
--3--0--0--0--0-0-0--0--3--|--L--5--0--0--0-0-0--0-0-0--|


  E  E  E  E  S S E  E  E     E  E  E  E  S S E  S S E   
---------------------------|----------------------------|
---------------------------|----------------------------|
---------------------------|----------------------------|
--3--0--0--0--0-0-0--0--3--|--L--5--0--0--0-0-0--0-0-0--|


  E  E  E  E  S S E  E  E     E  E  E  E  S S E  S S E   
---------------------------|----------------------------|
---------------------------|----------------------------|
---------------------------|----------------------------|
--3--0--0--0--0-0-0--0--3--|--L--5--0--0--0-0-0--0-0-0--|


  E  E  E  E  S S E  E  E     E  E  E  E  S S E  S S E   
---------------------------|----------------------------|
---------------------------|----------------------------|
---------------------------|----------------------------|
--3--0--0--0--0-0-0--0--3--|--L--5--0--0--0-0-0--0-0-0--|


  E  E  E  E  S S E  E  E     E  E  E  E  S S E  S S E   
---------------------------|----------------------------|
---------------------------|----------------------------|
---------------------------|----------------------------|
--3--0--0--0--0-0-0--0--3--|--L--5--0--0--0-0-0--0-0-0--|


  E  E  E  E  S S E  E  E     E  E  E  E  S S E  S S E   
---------------------------|----------------------------|
---------------------------|----------------------------|
---------------------------|----------------------------|
--3--0--0--0--0-0-0--0--3--|--L--5--0--0--0-0-0--0-0-0--|


  E  E  E  E  S S E  E  E     E  E  E  E  S S E  S S E   
---------------------------|----------------------------|
---------------------------|----------------------------|
---------------------------|----------------------------|
--3--0--0--0--0-0-0--0--3--|--L--5--0--0--0-0-0--0-0-0--|


  E  E  E  E  S S E  E  E     E  E  E  E  S S E  S S E   
---------------------------|----------------------------|
---------------------------|----------------------------|
---------------------------|----------------------------|
--3--0--0--0--0-0-0--0--3--|--L--5--0--0--0-0-0--0-0-0--|


  E  E  E  E  S S E  E  E     E  E  E  E  S S E  S S E   
---------------------------|----------------------------|
---------------------------|----------------------------|
---------------------------|----------------------------|
--3--0--0--0--0-0-0--0--3--|--L--5--0--0--0-0-0--0-0-0--|


  E  E  E  E  S S E  E  E     E  E  E  E  S S E  S S E   
---------------------------|----------------------------|
---------------------------|----------------------------|
---------------------------|----------------------------|
--3--0--0--0--0-0-0--0--3--|--L--5--0--0--0-0-0--0-0-0--|


  E  E  E  E  S S E  E  E     E  E  E  E  S S E  S S E     Q.     Q.     Q     
---------------------------|----------------------------|---------------------|
---------------------------|----------------------------|---------------------|
---------------------------|----------------------------|--5------4------1----|
--3--0--0--0--0-0-0--0--3--|--L--5--0--0--0-0-0--0-0-0--|---------------------|


  E  Q.     E  E  Q       E  E  E  E  S S E  E  E   
-----------------------|---------------------------|
-----------------------|---------------------------|
--L--0------3-----3----|---------------------------|
-----------------------|--3--0--0--0--0-0-0--0--3--|


  E  E  E  E  S S E  S S E     E  E  E  E  S S E  E  E   
----------------------------|---------------------------|
----------------------------|---------------------------|
----------------------------|---------------------------|
--L--5--0--0--0-0-0--0-0-0--|--3--0--0--0--0-0-0--0--3--|


  E  E  E  E  S S E  S S E     E  E  E  E  S S E  E  E   
----------------------------|---------------------------|
----------------------------|---------------------------|
----------------------------|---------------------------|
--L--5--0--0--0-0-0--0-0-0--|--3--0--0--0--0-0-0--0--3--|


  E  E  E  E  S S E  S S E     E  E  E  E  S S E  E  E   
----------------------------|---------------------------|
----------------------------|---------------------------|
----------------------------|---------------------------|
--L--5--0--0--0-0-0--0-0-0--|--3--0--0--0--0-0-0--0--3--|


  E  E  E  E  S S E  S S E     E  E  E  E  S S E  E  E   
----------------------------|---------------------------|
----------------------------|---------------------------|
----------------------------|---------------------------|
--L--5--0--0--0-0-0--0-0-0--|--3--0--0--0--0-0-0--0--3--|


  E  E  E  E  S S E  S S E     E  E  E  E  S S E  E  E   
----------------------------|---------------------------|
----------------------------|---------------------------|
----------------------------|---------------------------|
--L--5--0--0--0-0-0--0-0-0--|--3--0--0--0--0-0-0--0--3--|


  E  E  E  E  S S E  S S E     E  E  E  E  S S E  E  E   
----------------------------|---------------------------|
----------------------------|---------------------------|
----------------------------|---------------------------|
--L--5--0--0--0-0-0--0-0-0--|--3--0--0--0--0-0-0--0--3--|


  E  E  E  E  S S E  S S E     E  E  E  E  S S E  E  E   
----------------------------|---------------------------|
----------------------------|---------------------------|
----------------------------|---------------------------|
--L--5--0--0--0-0-0--0-0-0--|--3--0--0--0--0-0-0--0--3--|


  E  E  E  E  S S E  S S E     Q.     Q.     Q       E  Q.     E  E  Q     
----------------------------|---------------------|-----------------------|
----------------------------|---------------------|-----------------------|
----------------------------|--5------4------1----|--L--0------3-----3----|
--L--5--0--0--0-0-0--0-0-0--|---------------------|-----------------------|


  E  E  E  E  E  E  E  E     E  E  E  E  E  E  E  E   
--------------------------|--------------------------|
--------------------------|--------------------------|
--1--1--1--1--1--1--1--1--|--1--1--1--1--1--1--1--1--|
--------------------------|--------------------------|


  E  E  E  E  E  E  E  E     E  E  E  E  E  E  E  E   
--------------------------|--------------------------|
--------------------------|--------------------------|
--------------------------|--------------------------|
--3--3--3--3--3--3--3--3--|--5--5--5--5--5--5--5--5--|


  E  E  E  E  E  E  E  E     E  E  E  E  E  E  E  E   
--------------------------|--------------------------|
--------------------------|--------------------------|
--------------------------|--------------------------|
--3--0--0--0--0--0--0--3--|--L--5--0--0--0--0--0--0--|


  E  E  E  E  E  E  E  E     E  E  E  E  E  E  E  E   
--------------------------|--------------------------|
--------------------------|--------------------------|
--1--1--1--1--1--1--1--1--|--1--1--1--1--1--1--1--1--|
--------------------------|--------------------------|


  E  E  E  E  E  E  E  E     E  E  E  E  E  E  E  E   
--------------------------|--------------------------|
--------------------------|--------------------------|
--------------------------|--------------------------|
--3--3--3--3--3--3--3--3--|--5--5--5--5--5--5--5--5--|


  E  E  E  E  E  E  E  E     E  E  E  E  E  E  E  E     Q.     Q.     Q     
--------------------------|--------------------------|---------------------|
--------------------------|--------------------------|---------------------|
--------------------------|--------------------------|--5------4------1----|
--3--0--0--0--0--0--0--3--|--L--5--0--0--0--0--0--0--|---------------------|


  E  Q.     E  E  Q       E  E  E  E  S S E  E  E   
-----------------------|---------------------------|
-----------------------|---------------------------|
--L--0------3-----3----|---------------------------|
-----------------------|--3--0--0--0--0-0-0--0--3--|


  E  E  E  E  S S E  S S E     E  E  E  E  S S E  E  E   
----------------------------|---------------------------|
----------------------------|---------------------------|
----------------------------|---------------------------|
--L--5--0--0--0-0-0--0-0-0--|--3--0--0--0--0-0-0--0--3--|


  E  E  E  E  S S E  S S E     E  E  E  E  S S E  E  E   
----------------------------|---------------------------|
----------------------------|---------------------------|
----------------------------|---------------------------|
--L--5--0--0--0-0-0--0-0-0--|--3--0--0--0--0-0-0--0--3--|


  E  E  E  E  S S E  S S E     E  E  E  E  S S E  E  E   
----------------------------|---------------------------|
----------------------------|---------------------------|
----------------------------|---------------------------|
--L--5--0--0--0-0-0--0-0-0--|--3--0--0--0--0-0-0--0--3--|


  E  E  E  E  S S E  S S E     E  E  E  E  S S E  E  E   
----------------------------|---------------------------|
----------------------------|---------------------------|
----------------------------|---------------------------|
--L--5--0--0--0-0-0--0-0-0--|--3--0--0--0--0-0-0--0--3--|


  E  E  E  E  S S E  S S E     E  E  E  E  S S E  E  E   
----------------------------|---------------------------|
----------------------------|---------------------------|
----------------------------|---------------------------|
--L--5--0--0--0-0-0--0-0-0--|--3--0--0--0--0-0-0--0--3--|


  E  E  E  E  S S E  S S E     E  E  E  E  S S E  E  E   
----------------------------|---------------------------|
----------------------------|---------------------------|
----------------------------|---------------------------|
--L--5--0--0--0-0-0--0-0-0--|--3--0--0--0--0-0-0--0--3--|


  E  E  E  E  S S E  S S E     E  E  E  E  S S E  E  E   
----------------------------|---------------------------|
----------------------------|---------------------------|
----------------------------|---------------------------|
--L--5--0--0--0-0-0--0-0-0--|--3--0--0--0--0-0-0--0--3--|


  E  E  E  E  S S E  S S E     E  E  E  E  S S E  E  E   
----------------------------|---------------------------|
----------------------------|---------------------------|
----------------------------|---------------------------|
--L--5--0--0--0-0-0--0-0-0--|--3--0--0--0--0-0-0--0--3--|


  E  E  E  E  S S E  S S E     E  E  E  E  S S E  E  E   
----------------------------|---------------------------|
----------------------------|---------------------------|
----------------------------|---------------------------|
--L--5--0--0--0-0-0--0-0-0--|--3--0--0--0--0-0-0--0--3--|


  E  E  E  E  S S E  S S E     Q.     Q.     Q       E  Q.     E  E  Q     
----------------------------|---------------------|-----------------------|
----------------------------|---------------------|-----------------------|
----------------------------|--5------4------1----|--L--0------3-----3----|
--L--5--0--0--0-0-0--0-0-0--|---------------------|-----------------------|


  E  E  E  E  E  E  E  E     E  E  E  E  E  E  E  E   
--------------------------|--------------------------|
--------------------------|--------------------------|
--1--1--1--1--1--1--1--1--|--1--1--1--1--1--1--1--1--|
--------------------------|--------------------------|


  E  E  E  E  E  E  E  E     E  E  E  E  E  E  E  E   
--------------------------|--------------------------|
--------------------------|--------------------------|
--------------------------|--------------------------|
--3--3--3--3--3--3--3--3--|--5--5--5--5--5--5--5--5--|


  E  E  E  E  E  E  E  E     E  E  E  E  E  E  E  E   
--------------------------|--------------------------|
--------------------------|--------------------------|
--------------------------|--------------------------|
--3--0--0--0--0--0--0--3--|--L--5--0--0--0--0--0--0--|


  E  E  E  E  E  E  E  E     E  E  E  E  E  E  E  E   
--------------------------|--------------------------|
--------------------------|--------------------------|
--1--1--1--1--1--1--1--1--|--1--1--1--1--1--1--1--1--|
--------------------------|--------------------------|


  E  E  E  E  E  E  E  E     E  E  E  E  E  E  E  E   
--------------------------|--------------------------|
--------------------------|--------------------------|
--------------------------|--------------------------|
--3--3--3--3--3--3--3--3--|--5--5--5--5--5--5--5--5--|


  E  E  E  E  E  E  E  E     E  E  E  E  E  E  E  E     Q.     Q.     Q     
--------------------------|--------------------------|---------------------|
--------------------------|--------------------------|---------------------|
--------------------------|--------------------------|--5------4------1----|
--3--0--0--0--0--0--0--3--|--L--5--0--0--0--0--0--0--|---------------------|


  E  Q.     E  E  Q       W                   W                 
-----------------------|-------------------|-------------------|
-----------------------|-------------------|-------------------|
--L--0------3-----3----|-------------------|-------------------|
-----------------------|--4----------------|--L----------------|


  W                   W                   W                   W                 
-------------------|-------------------|-------------------|-------------------|
-------------------|-------------------|-------------------|-------------------|
-------------------|-------------------|-------------------|-------------------|
--3----------------|--L----------------|--0----------------|--L----------------|


  W                   W                   W                   W                 
-------------------|-------------------|-------------------|-------------------|
-------------------|-------------------|-------------------|-------------------|
-------------------|-------------------|-------------------|-------------------|
--0----------------|--L----------------|--4----------------|--L----------------|


  W                   W                   W                   W                 
-------------------|-------------------|-------------------|-------------------|
-------------------|-------------------|-------------------|-------------------|
-------------------|-------------------|-------------------|-------------------|
--3----------------|--L----------------|--0----------------|--L----------------|


  W                   W                   W                   W                 
-------------------|-------------------|-------------------|-------------------|
-------------------|-------------------|-------------------|-------------------|
-------------------|-------------------|-------------------|-------------------|
--0----------------|--L----------------|--4----------------|--4----------------|


  W                   W                   W                   W                 
-------------------|-------------------|-------------------|-------------------|
-------------------|-------------------|-------------------|-------------------|
-------------------|-------------------|-------------------|-------------------|
--3----------------|--3----------------|--0----------------|--0----------------|


  W                   W                   W                   W                 
-------------------|-------------------|-------------------|-------------------|
-------------------|-------------------|-------------------|-------------------|
-------------------|-------------------|-------------------|-------------------|
--0----------------|--0----------------|--4----------------|--4----------------|


  W                   W                   W                   W                 
-------------------|-------------------|-------------------|-------------------|
-------------------|-------------------|-------------------|-------------------|
-------------------|-------------------|-------------------|-------------------|
--3----------------|--3----------------|--0----------------|--0----------------|


  W                   W                   Q.     Q.     Q     
-------------------|-------------------|---------------------|
-------------------|-------------------|---------------------|
-------------------|-------------------|--5------4------1----|
--0----------------|--0----------------|---------------------|


  E  Q.     E  E  Q       Q    Q    Q    Q       Q    Q    Q    Q     
-----------------------|----------------------|----------------------|
-----------------------|----------------------|----------------------|
--L--0------3-----3----|--1----1----1----1----|--1----1----1----1----|
-----------------------|----------------------|----------------------|


  Q    Q    Q    Q       Q    Q    Q    Q       Q    Q    Q    E  E   
----------------------|----------------------|-----------------------|
----------------------|----------------------|-----------------------|
----------------------|----------------------|-----------------------|
--3----3----3----3----|--5----5----5----5----|--0----0----0----0--3--|


  E  E  Q    Q    Q       Q    Q    Q    Q       Q    Q    Q    Q     
-----------------------|----------------------|----------------------|
-----------------------|----------------------|----------------------|
-----------------------|--1----1----1----1----|--1----1----1----1----|
--L--5--0----0----0----|----------------------|----------------------|


  Q    Q    Q    Q       Q    Q    Q    Q       E  E  E  E  S S E  E  E   
----------------------|----------------------|---------------------------|
----------------------|----------------------|---------------------------|
----------------------|----------------------|---------------------------|
--3----3----3----3----|--5----5----5----5----|--3--0--0--0--0-0-0--0--3--|


  E  E  E  E  S S E  S S E     E  E  E  E  E  E  E  E   
----------------------------|--------------------------|
----------------------------|--------------------------|
----------------------------|--1--1--1--1--1--1--1--1--|
--L--5--0--0--0-0-0--0-0-0--|--------------------------|


  E  E  E  E  E  E  E  E     E  E  E  E  E  E  E  E   
--------------------------|--------------------------|
--------------------------|--------------------------|
--1--1--1--1--1--1--1--1--|--------------------------|
--------------------------|--3--3--3--3--3--3--3--3--|


  E  E  E  E  E  E  E  E     E  E  E  E  E  E  E  E   
--------------------------|--------------------------|
--------------------------|--------------------------|
--------------------------|--------------------------|
--5--5--5--5--5--5--5--5--|--3--0--0--0--0--0--0--3--|


  E  E  E  E  E  E  E  E     E  E  E  E  E  E  E  E   
--------------------------|--------------------------|
--------------------------|--------------------------|
--------------------------|--1--1--1--1--1--1--1--1--|
--L--5--0--0--0--0--0--0--|--------------------------|


  E  E  E  E  E  E  E  E     E  E  E  E  E  E  E  E   
--------------------------|--------------------------|
--------------------------|--------------------------|
--1--1--1--1--1--1--1--1--|--------------------------|
--------------------------|--3--3--3--3--3--3--3--3--|


  E  E  E  E  E  E  E  E     E  E  E  E  E  E  E  E   
--------------------------|--------------------------|
--------------------------|--------------------------|
--------------------------|--------------------------|
--5--5--5--5--5--5--5--5--|--3--0--0--0--0--0--0--3--|


  E  E  E  E  E  E  E  E     E  E  E  E  E  E  E  E   
--------------------------|--------------------------|
--------------------------|--------------------------|
--------------------------|--1--1--1--1--1--1--1--1--|
--L--5--0--0--0--0--0--0--|--------------------------|


  E  E  E  E  E  E  E  E     E  E  E  E  E  E  E  E   
--------------------------|--------------------------|
--------------------------|--------------------------|
--1--1--1--1--1--1--1--1--|--------------------------|
--------------------------|--3--3--3--3--3--3--3--3--|


  E  E  E  E  E  E  E  E     E  E  E  E  E  E  E  E   
--------------------------|--------------------------|
--------------------------|--------------------------|
--------------------------|--------------------------|
--5--5--5--5--5--5--5--5--|--3--0--0--0--0--0--0--3--|


  E  E  E  E  E  E  E  E     E  E  E  E  E  E  E  E   
--------------------------|--------------------------|
--------------------------|--------------------------|
--------------------------|--1--1--1--1--1--1--1--1--|
--L--5--0--0--0--0--0--0--|--------------------------|


  E  E  E  E  E  E  E  E     E  E  E  E  E  E  E  E   
--------------------------|--------------------------|
--------------------------|--------------------------|
--1--1--1--1--1--1--1--1--|--------------------------|
--------------------------|--3--3--3--3--3--3--3--3--|


  E  E  E  E  E  E  E  E     W                   W                 
--------------------------|-------------------|-------------------|
--------------------------|-------------------|-------------------|
--------------------------|-------------------|-------------------|
--5--5--5--5--5--5--5--5--|--0----------------|--L----------------|


  W                   W                   W                   W                 
-------------------|-------------------|-------------------|-------------------|
-------------------|-------------------|-------------------|-------------------|
-------------------|-------------------|-------------------|-------------------|
--L----------------|--L----------------|--L----------------|--L----------------|


  W                   W                   W                  
-------------------|-------------------|-------------------||
-------------------|-------------------|-------------------||
-------------------|-------------------|-------------------||
--L----------------|--L----------------|--L----------------||




Duration Legend
---------------
W - whole
H - half
Q - quarter
E - 8th
S - 16th
T - 32nd
X - 64th
. - note dotted
|-n-|  - n-tuplets


Tablature Legend
----------------
L - tied note
x - dead note
g - grace note
(n) - ghost note
> - accentuded note
NH - natural harmonic
AH - artificial harmonic
TH - tapped harmonic
SH - semi harmonic
PH - pitch harmonic
h - hammer on
p - pull off
b - bend
br - bendRelease
pb - preBend
pbr - preBendRelease
brb - bendReleaseBend
\n/ - tremolo bar dip
\n - tremolo bar dive
-/n - tremolo bar Release up
/n\ - tremolo bar inverted dip
/n - tremolo bar return
-\n - tremolo bar Release down
S - shift slide
s - legato slide
/ -  slide into from below or out of upwards
\ -  slide into from above or out of downwards
~ - vibrato
W - wide vibrato
tr - trill
TP - tremolo picking
T - tapping
S - slap
P - pop
< - fade in
^ - brush up
v - brush down
comments
We did not receive enough feedback on this tab! Please rate:
print report bad tab
1 2 3 4 5
I want to post or [tab]
guest
You may want to rate the tab now too:
select rating
Please do not post tabs as comments. Select "correction" instead!