Oops, an error
Loading. Please wait.

25 To Life Tab

ver2
ver2

Whole song

More versions @911Tabs.com
7,531 views 33 this week
no commentswrite comment
1 2 3 4 5
excellent!
x 2
add to favorites launch autoscroll
font size
0
reset
Autoscroll
+/-
esc
set tempo
stop
Difficulty
novice
WARNING: You are trying to view
                                    content from Ultimate-Guitar.com
                                    in an unauthorized application,
                                    which is prohibited.

                                    Please use an official Ultimate
                                    Guitar Tabs application for iPhone,
                                    iPad or Android to access legitimate
                                    chords, guitar, bass, and drum tabs
                                    from Ultimate-Guitar.com database.

                                    Type "ultimate guitar tabs" in Apple
                                    App Store's or Android Market's
                                    search to find the application.
-------------------------------------------------------------------------------
			     25 to Life - Eminem
-------------------------------------------------------------------------------
Tabbed by: tokiohotelluvr
LISTEN TO THE SONG TO DETERMINE THE STRUMMING PATTERN
Tuning: EADGBE (No Capo)
Chorus(Intro): x2
	      Too late.    For the other side
e|---4--------2---------------0--------4------------------------------------|
B|---4--------2---------------0--------4------------------------------------|
G|---4--------3---------------1--------4------------------------------------|
D|---6--------4---------------2--------6------------------------------------|
A|---6--------4---------------2--------6------------------------------------|
E|---4--------2---------------0--------4------------------------------------|

    Caught in a chase twenty-five to life
e|---4------------2------------2----------4------------------------------|
B|---4------------2------------2----------4------------------------------|
G|---4------------3------------3----------4------------------------------|
D|---6------------4------------4----------6------------------------------|
A|---6------------4------------4----------6-----------------------------|
E|---4------------2------------2----------4-----------------------------|

Verse 1:
I don't think she understands the sacrifices 
that ive made Maybe if this bitch wouldve acted right I wouldve stayed
E|--4-----------0-----------------------4----------------------------------------|
B|--4-----------0-----------------------4----------------------------------------|
G|--4-----------1-----------------------4----------------------------------------|
D|--6-----------2-----------------------6----------------------------------------|
A|--6-----------2-----------------------6----------------------------------------|
E|--4-----------0-----------------------4----------------------------------------|
 
But Ive already wasted over half my life
	I would have laid down and died for you, I no longer cry for you, NO more pain
e|-----2---------------------0-----------------4--------------------------------|
B|-----2---------------------0-----------------4--------------------------------|
G|-----3---------------------1-----------------4--------------------------------|
D|-----4---------------------2-----------------6--------------------------------|
A|-----4---------------------2-----------------6--------------------------------|
E|-----2---------------------0-----------------4--------------------------------|
(Same Chords)
Bitch you took me for granted
Took my heart and ran it straight into the planet
Into the dirt
I can no longer stand it
Now my respect I demand it
Imma take control of this relationship
Command it
And I'm gonna be the boss of you now goddammit
And what I mean is that 
I'm will no longer let you control me
So you better hear me out
This much you owe me
I gave up my life for you
Totally devoted to you
Why I've stayed
Faithful all the way
This is how I fucking get repaid?
Look at how I dress
Fucking baggy sweats
Go to work a mess
Always in a rush to get back to you
I ain't heard you yet
Not even once say you appreciate me
I deserve respect
I've done my best to give you 
Nothing less then perfectness
And I know that if I end this
I'll no longer have nothing left
But you keep treating me like a staircase
It's time to fucking step
And I wont be coming back
So don't hold your fucking breath
You know what you've done
No need to go in depth
I told you you'd be sorry
If I fucking left
I laughed while you wept
How's it feel now?
Yeah funny ain't it
You neglected me
Did me a favor
Let all my spirit free
You've said
Got a special place for you
In my heart
That I have kept
It's unfortunate but it's

Chorus (Same chords)

I feel like
When I bend over backwards for you
All you do is laugh
Cuz that ain't good enough
You expect me to fold myself in half
Till I snap
Don't think I'm loyal
All I do is rap
How can I moonlight on the side
I have no life outside of that
Don't I give you enough of my time?
You don't think so do you?
Jealous when I spend time with the girls
Why I'm married to you still
Man I don't know
But tonight I'm serving you with papers
I'm divorcing you
Go marry someone else
And make em famous
And take away their freedom
Like you did to me
Treat em like you don't need em
And they ain't worthy of you
Feed em 
The same shit that you made me eat
I'm moving on
Forget you
Oh now I'm special
I didn't feel special when I was wit you
All I ever felt was this 
Helplessness
Imprisoned by a selfish bitch
Chew me up and spit me out
I fell for this
So many times
It's ridiculous
And still I stick with this
I'm sick of this
But in my sickness
And addiction
Your addictive as they get
Evil as they come
Vindictive as they make em
My friends keep asking me
Why I can't just walk away from them
I'm addicted
To the pain, the stress
And drama
I'm drawn to shit
So I guess I'm a mess
Cursed and blessed
But this time imma
Ain't changing my mind
I'm climbing out this abyss
Your screaming as I walk out
That I'll be missed
But when you spoke of people 
Who meant the most to you
You left me off my list
Fuck you hip hop
I'm leaving you
My life sentence is served bitch
And it's just


Chorus(x3)
comments
We did not receive enough feedback on this tab! Please rate:
print report bad tab
1 2 3 4 5
I want to post or [tab]
guest
You may want to rate the tab now too:
select rating
Please do not post tabs as comments. Select "correction" instead!