Oops, an error
Loading. Please wait.

Love The Way You Lie Tab

ver3
ver3

Intro

Interactive

More versions @911Tabs.com
31,975 views 24 this week
1 commentread comment
1 2 3 4 5
excellent!
x 2
Autoscroll
+/-
esc
set tempo
stop
Contributor
Difficulty
intermediate
Hey! There's an official Ultimate Guitar app which is ideal
for learning songs when you're away from computer. Get the app
WARNING: You are trying to view
                                    content from Ultimate-Guitar.com
                                    in an unauthorized application,
                                    which is prohibited.

                                    Please use an official Ultimate
                                    Guitar Tabs application for iPhone,
                                    iPad or Android to access legitimate
                                    chords, guitar, bass, and drum tabs
                                    from Ultimate-Guitar.com database.

                                    Type "ultimate guitar tabs" in Apple
                                    App Store's or Android Market's
                                    search to find the application.
Song:Love the way you lie
Artist:Eminem ft. Rihanna
Tab & Chords by: Jorem (jOr3m_01@yahoo.com)


Tuning: Standard

Legend: / = slide (slide slowly)
	x = dead string
	v = strumming going up..

Intro:(Chorus)

i think this part is done in keyboard but dont know how to
play keyboard so i think this is how it plays in guitar...

    Gm		 Eb	         Bb	      F
E|----------------------------|-----------------------------|
B|--3-----3------4---4--------|--3-----3------1---1---------|
G|--3---3-3---3--3---3---3----|--3---3-3---3--2---2---2-----|
D|--5-5---5-5----5-5-5-5---5--|--3-3---3-3----3-3-3-3---3---|
A|----------------------------|-----------------------------|
E|----------------------------|-----------------------------|


Gm		 Eb	         Bb	        F
E|----------------------------|--------6--------------5---------------|
B|--3-----3------4---4--------|--6-------6---6--6-------6---6---3/0---|
G|--3---3-3---3--3---3---3----|--7---7-----7----5---5-----5-----3/0---|
D|--5-5---5-5----5-5-5-5---5--|--8-8------------7-7-------------------|
A|----------------------------|---------------------------------------|
E|----------------------------|---------------------------------------|



Stanza:(Do this in all stanza's)

    Gm		     Eb		       Bb		F
E|--3-3-3v-3v-3-3-3--3-3-6v-6v-6-6--|--x-x-6v-6v-6-6-6--6-6-6v-6v-6-6---|
B|--3-3-3v-3v-3-3-3--4-4-4v-4v-4-4--|--6-6-6v-6v-6-6-6--6-6-6v-6v-6-6---|
G|--3-3-3v-3v-3-3-3--3-3-3v-3v-3-3--|--7-7-7v-7v-7-7-7--5-5-5v-5v-5-5---|(3x)
D|--5-5-5v-5v-5-5-5--5-5-5v-5v-5-5--|--8-8-8v-8v-8-8-8--7-7-7v-7v-7-7---|
A|----------------------------------|-----------------------------------|
E|----------------------------------|-----------------------------------|

    Gm		     Eb		       Bb		F
E|--3-3-3v-3v-3-3-3--3-3-6v-6v-6-6--|--x-x-6v-6v-6-6-6--6-6-6v----|
B|--3-3-3v-3v-3-3-3--4-4-4v-4v-4-4--|--6-6-6v-6v-6-6-6--6-6-6v----|
G|--3-3-3v-3v-3-3-3--3-3-3v-3v-3-3--|--7-7-7v-7v-7-7-7--5-5-5v----|
D|--5-5-5v-5v-5-5-5--5-5-5v-5v-5-5--|--8-8-8v-8v-8-8-8--7-7-7v----|
A|----------------------------------|-----------------------------|
E|----------------------------------|-----------------------------|


Chorus:(Do this in Chorus)

    Gm		     Eb		       Bb		F
E|--3-3-3v-3v-3-3-3--3-3-6v-6v-6-6--|--x-x-6v-6v-6-6-6--6-6-6v-6v-6-6---|
B|--3-3-3v-3v-3-3-3--4-4-4v-4v-4-4--|--6-6-6v-6v-6-6-6--6-6-6v-6v-6-6---|
G|--3-3-3v-3v-3-3-3--3-3-3v-3v-3-3--|--7-7-7v-7v-7-7-7--5-5-5v-5v-5-5---|(2x)
D|--5-5-5v-5v-5-5-5--5-5-5v-5v-5-5--|--8-8-8v-8v-8-8-8--7-7-7v-7v-7-7---|
A|--5-5-----------------------------|-----------------------------------|
E|--3-3-----------------------------|-----------------------------------|

    Gm		     Eb		       Bb		F
E|--3-3-3v-3v-3-3-3--3-3-6v-6v-6-6--|--x-x-6v-6v-6-6-6--6-6-6v----|
B|--3-3-3v-3v-3-3-3--4-4-4v-4v-4-4--|--6-6-6v-6v-6-6-6--6-6-6v----|
G|--3-3-3v-3v-3-3-3--3-3-3v-3v-3-3--|--7-7-7v-7v-7-7-7--5-5-5v----|
D|--5-5-5v-5v-5-5-5--5-5-5v-5v-5-5--|--8-8-8v-8v-8-8-8--7-7-7v----|
A|----------------------------------|-----------------------------|
E|----------------------------------|-----------------------------|



Chords:Love the way you lie


Intro:(Chorus)


           Gm                       Eb
Just gonna stand there and watch me burn,

             Bb                               F
But that's alright because I like the way it hurts.

           Gm                      Eb
Just gonna stand there and hear me cry,

             Bb                                F
But that's alright because I love the way you lie,

                       Gm
I love the way you lie


Verse:

                          Gm
I can't tell you what it really is, I can only tell you what it feels like

Eb
And right now, there's a steel knife in my windpipe

Bb
I can't breathe, but I still fight while I can fight

F
As long as the wrong feels right, it's like I'm in flight

Gm
High off of love, drunk from my hate,

                      Eb
it's like I'm huffin' paint and I love it, the more I suffer, I suffocate

Bb
And right before I'm about to drown, she resuscitates

F
Me, she fuckin' hates me, and I love it, Wait!

Gm
Where you going? I'm leaving you. No you ain't,

Eb                                                     Bb
Come back. We're running right back, here we go again, it's so insane


Cuz when it's going good, it's going great

F
I'm Superman with the wind at his back, she's Lois Lane

Gm
But when and it's bad, it's awful, I feel so ashamed,

Eb
I snap "Who's that dude?", I don't even know his name

Bb
I laid hands on her, I'll never stoop so low again

F                         (Hold)
I guess I don't know my own strength


Repeat Chorus:


Verse 2 (Same Chords in verse 1)

                 
You ever love somebody so much, you can barely breathe when you with 'em?
You meet, and neither one of you even know it hit 'em
Got that warm fuzzy feeling, yeah them chills used to get 'em
Now you gettin' fuckin' sick of lookin' at 'em
You swore you'd never hit 'em, never do nothin' to hurt 'em
Now you're in each other's face spewing venom in your words when you spit 'em
You push, pull each other's hair, scratch, claw, bit 'em
Throw 'em down, pin 'em, so lost in the moments when you're in 'em
It's the face that's the culprit, controls you both
So they say, you'd best to go your separate ways
Guess that they don't know ya cuz today, that was yesterday,
Yesterday is over and it's a different day, 
Sound like broken records playing over but you promised her,
next time you'd show restraint, you don't get another chance
Life is no nintendo game, but you lied again
Now you get to watch her leave out the window
Guess that's why they call it "window pane"


Repeat Chorus:


Verse 3 (Same Chords in verse 1)

              
Now I know we said things, did things that we didn't mean
And we fall back into the same patterns, same routine
But your temper's just as bad as mine is; you're the same as me
When it comes to love you're just as blinded
Baby please come back, it wasn't you. Baby it was me,
Maybe our relationship isn't as crazy as it seems
Maybe that's what happens when a tornado meets a volcano
All I know is I love you too much, to walk away though
Come inside, pick up your bags off the sidewalk
Don't you hear sincerity in my voice when I talk?
Told you this is my fault, look me in the eyeball
Next time I'm pissed, I'll aim my fist at the drywall
Next time? There won't be no next time
I apologize, even though I know it's lies
I'm tired of the games, I just want her back. I know I'm a liar,
                       (Hold here)
If she ever tries to fuckin' leave again,
Ima tie her to the bed and set this house on fire
Just gonna

Repeat Chorus:


this tab is 100% my own ear transcribed...
hope u enjoy it....
comments
We did not receive enough feedback on this tab! Please rate:
print report bad tab
1 2 3 4 5
1 comment total.
0 reply
ckhuletz wrote on September 20 2010, 02:55 am

cooool.....^_^ nice job...

I want to post or [tab]
guest
You may want to rate the tab now too:
select rating
Please do not post tabs as comments. Select "correction" instead!