Oops, an error
Loading. Please wait.

So Far Tab

3,807 views 39 this week
no commentswrite comment
1 2 3 4 5
excellent!
x 4
Autoscroll
+/-
esc
set tempo
stop
Contributor
Difficulty
intermediate
Hey! There's an official Ultimate Guitar app which is ideal
for learning songs when you're away from computer. Get the app
WARNING: You are trying to view
                                    content from Ultimate-Guitar.com
                                    in an unauthorized application,
                                    which is prohibited.

                                    Please use an official Ultimate
                                    Guitar Tabs application for iPhone,
                                    iPad or Android to access legitimate
                                    chords, guitar, bass, and drum tabs
                                    from Ultimate-Guitar.com database.

                                    Type "ultimate guitar tabs" in Apple
                                    App Store's or Android Market's
                                    search to find the application.
-------------------------------------------------------------------------------
                        SO FAR.. - EMINEM
-------------------------------------------------------------------------------
Tabbed by: linkme620
E-mail: linkme620@gmail.com

Tuning: standard

not that complicated, most of it from Joe Walsh's "Life's Been Good", and one part from
"The Real Slim Shady"

INTRO:
E--------------|
B--------------|
G--------------|
D------0-2-3---|
A---3----------|
E--------------|

Strum Dm only once every other time and than quickly switch to C (on 'sleep on the
couch' and 'gasket just blew')

F         C            Dm         C
I own a mansion, but live in a house
F         C                Dm C
A king-size bed, but I sleep on the couch
F         C            Dm         C
I'm Mr.Brightside, glass is half full
F         C               Dm  C
But my tank is half empty, gasket just blew

play this during the verse;


E---------------------------------------------------|
B---------------------------------------------------|
G--------------------2----------------2---2-2-------|
D--------------------2--------2-----------2-2-------|
A--2b3-3r2-0--2/4------0-2/4-----4--------0-0-------|
E---------------------------------------------------|


E---------------------------------------------------------|
B--------------------------------------3-3-3--------------|
G---------------------2----------------2-2-2---2-2-2------|
D---------------------2--------2----0--0-0-0---2-2-2------|
A--2b3-3r2-0--2/4-------0-2/4----4-------------0-0-0------|
E---------------------------------------------------------|


Verse 1:
This always happens
30 minutes from home, gotta lay a log cabin, only option I have's McDonalds's bathroom
In a public stall dropping a football, so every time someone walks in the john I get maddene
"Shady, what up?" What? Come on, man, I'm crappin'
And you're asking me for my goddamn autograph on a napkin?
Oh that's odd, I just happened
To run out of tissue, yeah, hand me that, on second thought I'd be glad then
"Thanks dawg, name's Todd, a big fan"
I wiped my ass with it, crumbled it up in a wad and threw it back and
Told him "Todd, you're the shit"; when's all of this crap end?
Can't pump my gas without causing an accident
Puff my gas, cut my grass, can't take out the fucking trash
Without someone passing through my sub harassing
I'd count my blessings, but I suck at math
I'd rather wallow than bask suffering succotash, but the ant-
Acid, it gives my stomach gas
When I mix my corn with my fucking mashed
Potatoes, so what, ho kiss my country bumpkin ass
Missouri Southern roots, what the fuck is upper class
Call lunch dinner, call dinner supper, Tupperware in the cupboard, plastic ware up the ass
Stuck in the past, iPod, what the fuck is that
B-Boy to the core, mule, I'm a stubborn ass

Hook:


E---5-5-5---3-3-3--1-1----5-5-5---3-3-3--1-1-|
B---6-6-6---5-5-5--1-1----6-6-6---5-5-5--1-1-|
G---5-5-5---5-5-5--2-2----5-5-5---5-5-5--2-2-|
D--------------------------------------------|
A--------------------------------------------|
E--------------------------------------------|

Maybe that's why I feel so strange
Got it all, but I still won't change


NOW choose; play Am or;

E--5-5-5---3-3-3--0-0-0-0------5-5-5---3-3-3--0-0-0-0----|
B--5-5-5---3-3-3--1-1-0-0h1----5-5-5---3-3-3--1-1-0-0h1--|
G--5-5-5---4-4-4--2-2-0-0h2----5-5-5---4-4-4--2-2-0-0h2--|
D--------------------------------------------------------|
A--------------------------------------------------------|
E--------------------------------------------------------|

Maybe that's why I can't leave Detroit
It's the motivation that keeps me going

*ONLY ONCE

E---5-5-5---3-3-3--1-1--|
B---6-6-6---5-5-5--1-1--|
G---5-5-5---5-5-5--2-2--|
D-----------------------|
A-----------------------|
E-----------------------|

This is the inspiration I need
I can never turn my back on a city that made me


F              G                Am
(Life's been good to me so far)




Verse 2:

E---------------------------------------------------|
B---------------------------------------------------|
G--------------------2----------------2---2-2-------|
D--------------------2--------2-----------2-2-------|
A--2b3-3r2-0--2/4------0-2/4-----4--------0-0-------|
E---------------------------------------------------|


E---------------------------------------------------------|
B--------------------------------------3-3-3--------------|
G---------------------2----------------2-2-2---2-2-2------|
D---------------------2--------2----0--0-0-0---2-2-2------|
A--2b3-3r2-0--2/4-------0-2/4----4-------------0-0-0------|
E---------------------------------------------------------|


They call me classless, I heard that, I second and third that
Don't know what the fuck I would doing if it weren't rap
Probably be a giant turd-sack
But I blew, never turned back
Turned 40 and still sag
Teenagers act more fucking mature, Jack
Fuck you gonna say to me?
I leave on my own terms, asshole, I'm going berzerk
My nerves are bad, but I love the perks my work has
I get to meet famous people, look at her, dag
Her nylons ran, her skirt snag
And I heard she drag-races, *burp* swag
Fucking my Hanes shirt tag
You're Danica Patrick (yeah) work, skag
We'd be the perfect match
Cause you're a vacuum, I'm a dirtbag
My apologies, no disrespect to technology
But what the heck is all of these buttons?
You expect me to sit here and learn that?
Fuck I gotta do to hear this new song from Luda?
Be an expert at computers?
I'd rather be an encyclopedia Britannica, hell with a Playstation
I'm still on my first manual from Zelda
Nintendo, bitch, run, jump, punch, stab and I melt the
Mozzarella on my spaghetti, put in on bread
Make a sandwich with welch's and belch
They say this spray butter is bad for my health, but
I think there's more white trash from the trailer
Jed Clampett, Redd Sanford welfare mentality helps to
Keep me grounded, that's why I never take full advantage of wealth, I
Managed to dwell within these parameters
Still cramming the shelves full of hamburger helper
I can't even help it, this is the hand I was dealt to
Creature of habit, feel like I'm trapped in an animal shelter
With all these pet peeves
God dammit to hell, I can't stand all these kids with their camera cellphones
I can't go anywhere, I get so mad I can yell, the    <----bass, but it's the same
as the next melody on guitar
Other day someone got all elaborate and stuck a head from a fucking dead cat in my mailbox

e|---------------8-----------------------------------------------------------------|
B|----------8-9-----9--8-----------------------------------------------------------|
G|---5---8-------------------------------------------------------------------------|
D|---------------------------------------------------------------------------------|
A|---------------------------------------------------------------------------------|
E|---------------------------------------------------------------------------------|

Went to Burger King, they spit on my onion rings
(silence)
I think my karma is catching up with me

Hook:


E---5-5-5---3-3-3--1-1----5-5-5---3-3-3--1-1-|
B---6-6-6---5-5-5--1-1----6-6-6---5-5-5--1-1-|
G---5-5-5---5-5-5--2-2----5-5-5---5-5-5--2-2-|
D--------------------------------------------|
A--------------------------------------------|
E--------------------------------------------|

Maybe that's why I feel so strange
Got it all, but I still won't change


NOW choose; play Am or;

E--5-5-5---3-3-3--0-0-0-0------5-5-5---3-3-3--0-0-0-0----|
B--5-5-5---3-3-3--1-1-0-0h1----5-5-5---3-3-3--1-1-0-0h1--|
G--5-5-5---4-4-4--2-2-0-0h2----5-5-5---4-4-4--2-2-0-0h2--|
D--------------------------------------------------------|
A--------------------------------------------------------|
E--------------------------------------------------------|

Maybe that's why I can't leave Detroit
It's the motivation that keeps me going

*ONLY ONCE

E---5-5-5---3-3-3--1-1--|
B---6-6-6---5-5-5--1-1--|
G---5-5-5---5-5-5--2-2--|
D-----------------------|
A-----------------------|
E-----------------------|

This is the inspiration I need
I can never turn my back on a city that made me


F              G                Am
(Life's been good to me so far)


Bridge: just like the intro (Dm shorter on every other line);

E--------------|
B--------------|
G--------------|
D------0-2-3---|
A---3----------|
E--------------|


F             C              Dm        C
Got friends on facebook, all over the world
F             C                 Dm  C
Not sure what that means, they tell me it's good
F             C              Dm        C
So I'm artist of the decade, I even got a plaque
F             C            Dm  C
I'd hang it up, but the frame is all cracked

Verse 3:



Finger pick the Am calmly

I'm trying to be lowkey, hopefully nobody notices me
In produce hunched over, giant nosebleed
Over stop as I mosey over to the frozen aisle
By the frozen yogurt this guy approached me
Embarrassed, I just did Comerica with Hova
Show's over, I'm hiding in Kroger buying groceries
He just had front row seats, told me to sign this poster
Then insults me "wow, up close didn't know you had crow's feet"

E---------------------------------------------------|
B---------------------------------------------------|
G--------------------2----------------2---2-2-------|
D--------------------2--------2-----------2-2-------|
A--2b3-3r2-0--2/4------0-2/4-----4--------0-0-------|
E---------------------------------------------------|


E---------------------------------------------------------|
B--------------------------------------3-3-3--------------|
G---------------------2----------------2-2-2---2-2-2------|
D---------------------2--------2----0--0-0-0---2-2-2------|
A--2b3-3r2-0--2/4-------0-2/4----4-------------0-0-0------|
E---------------------------------------------------------|

I'm at a crossroad lost till shopping at Costco
Sloppy Joe's, buck waffles
Got caught picking my nose, ah
Look over see these two hot hoes
Finger still up in one of my nostrils
Right next to 'em stuck at the light
This fucking shit is taking forever to change
I'm stuck, these bitches are loving it rubbing it in
Chuckling, couldn't do nothing, play it off
''What you bumping? Trunk Muzik? Yelawolf's better'', fucking bitch
They want me to flip at the label, but I won't succumb to it
The pressure, they want me to follow up with another one after Recovery
Was so highly coveted, but what good is a fucking recovery if I fumble it?
Cause I'mma drop the ball if I don't get a grip
Hopping on shrubbery on you sons of bitches
Wrong subdivison to fuck with, bitch
Quit snapping fucking pictures of my kids
I love my city, but you push me to my limit, what a pity
The shit I complain about
It's like there ain't a cloud in the sky and it's raining out
Kool Aid stain on the couch, I'd never get it out
Bitch, I got an elevator in my house
Ants and a mouse, I'm living the dream

Hook:


E---5-5-5---3-3-3--1-1----5-5-5---3-3-3--1-1-|
B---6-6-6---5-5-5--1-1----6-6-6---5-5-5--1-1-|
G---5-5-5---5-5-5--2-2----5-5-5---5-5-5--2-2-|
D--------------------------------------------|
A--------------------------------------------|
E--------------------------------------------|

Maybe that's why I feel so strange
Got it all, but I still won't change


NOW choose; play Am or;

E--5-5-5---3-3-3--0-0-0-0------5-5-5---3-3-3--0-0-0-0----|
B--5-5-5---3-3-3--1-1-0-0h1----5-5-5---3-3-3--1-1-0-0h1--|
G--5-5-5---4-4-4--2-2-0-0h2----5-5-5---4-4-4--2-2-0-0h2--|
D--------------------------------------------------------|
A--------------------------------------------------------|
E--------------------------------------------------------|

Maybe that's why I can't leave Detroit
It's the motivation that keeps me going

*ONLY ONCE

E---5-5-5---3-3-3--1-1--|
B---6-6-6---5-5-5--1-1--|
G---5-5-5---5-5-5--2-2--|
D-----------------------|
A-----------------------|
E-----------------------|

This is the inspiration I need
I can never turn my back on a city that made me


F              G                Am
(Life's been good to me so far)
comments
print report bad tab
I want to post or [tab]
guest
You may want to rate the tab now too:
select rating
Please do not post tabs as comments. Select "correction" instead!