Oops, an error
Loading. Please wait.

Demons With Ryu Tab

ver1
ver1

Whole song

Interactive

More versions @911Tabs.com
20,346 views 21 this week
no commentswrite comment
1 2 3 4 5
excellent!
x 6
Autoscroll
+/-
esc
set tempo
stop
Contributor
Difficulty
Tuning
novice
A E A D F# B
Hey! There's an official Ultimate Guitar app which is ideal
for learning songs when you're away from computer. Get the app
WARNING: You are trying to view
                                    content from Ultimate-Guitar.com
                                    in an unauthorized application,
                                    which is prohibited.

                                    Please use an official Ultimate
                                    Guitar Tabs application for iPhone,
                                    iPad or Android to access legitimate
                                    chords, guitar, bass, and drum tabs
                                    from Ultimate-Guitar.com database.

                                    Type "ultimate guitar tabs" in Apple
                                    App Store's or Android Market's
                                    search to find the application.
#----------------------------------PLEASE NOTE---------------------------------#
#This file is the author's own work and represents their interpretation of the #
#song. You may only use this file for private study, scholarship, or research. #
#------------------------------------------------------------------------------#

This is ripped directly from my powertab of this.

Gtr I (A E A D Gb B) - 'Left Channel'
Gtr II (A E A D Gb B) - 'Right Channel'
Gtr III (A E A D Gb B) - 'Overdubs'

 Intro
  Moshcore E=184
  N.C.
 4/4
  Gtr III
  ~~~~~~~~~~
  S     +S
|--------------|
|--------------|
|--------------|
|--------------|
|-4b4.5r(4)----| <- keep bending and releasing for 2 measures
|--------------|


  Ebb5                                                         N.C.
  Gtr I
  PM----------------------|        PM----------------------|
  E T T T T E T T T T S S S S Q    E T T T T E T T T T S S S S  S +E.
|--------------------------------|-------------------------------------|
|--------------------------------|-------------------------------------|
|--------------------------------|-------------------------------------|
|--------------------------------|-------------------------------------|
|-0-0-0-0-0-0-0-0-0-0-0-0-0------|-0-0-0-0-0-0-0-0-0-0-0-0-0-----------|
|-1-1-1-1-1-1-1-1-1-1-1-1-1------|-1-1-1-1-1-1-1-1-1-1-1-1-1---/4-(4)\-|
|
| Gtr II
| PM----------------------|        PM----------------------|
| E T T T T E T T T T S S S S Q    E T T T T E T T T T S S S S  Q
|--------------------------------|-------------------------------------|
|--------------------------------|-------------------------------------|
|--------------------------------|-------------------------------------|
|--------------------------------|-------------------------------------|
|-0-0-0-0-0-0-0-0-0-0-0-0-0------|-0-0-0-0-0-0-0-0-0-0-0-0-0-----------|
|-1-1-1-1-1-1-1-1-1-1-1-1-1------|-1-1-1-1-1-1-1-1-1-1-1-1-1-----------|


  Ebb5                                                     D5EbD5F5D5
  PM----------------------|        PM----------------------|   PM  PM
  E T T T T E T T T T S S S S Q    E T T T T E T T T T S S S S S S S S
|--------------------------------|-------------------------------------|
|--------------------------------|-------------------------------------|
|--------------------------------|-------------------------------------|
|--------------------------------|---------------------------1---3---0-|
|-0-0-0-0-0-0-0-0-0-0-0-0-0------|-0-0-0-0-0-0-0-0-0-0-0-0-0-1-0-3-0-0-|
|-1-1-1-1-1-1-1-1-1-1-1-1-1------|-1-1-1-1-1-1-1-1-1-1-1-1-0-1-0-3-0-0-|
|
| PM----------------------|        PM----------------------|   PM  PM
| E T T T T E T T T T S S S S Q    E T T T T E T T T T S S S S S S S S
|--------------------------------|-------------------------------------|
|--------------------------------|-------------------------------------|
|--------------------------------|-------------------------------------|
|--------------------------------|---------------------------1---3---0-|
|-0-0-0-0-0-0-0-0-0-0-0-0-0------|-0-0-0-0-0-0-0-0-0-0-0-0-0-1-0-3-0-0-|
|-1-1-1-1-1-1-1-1-1-1-1-1-1------|-1-1-1-1-1-1-1-1-1-1-1-1-0-1-0-3-0-0-|


  D5/Eb                                  N.C.
   S  S    S  S  S  S  S  S  S  S   S  S  S  S  S  S
|-------------------------------------------------------||
|-10-10---10-10-10-10-10-10-10-10--10-10-10-10-10-10----||
|--7--7----7--7--7--7--7--7--7--7---7--7--7--7--7--7----||
|--0--0----0--0--0--0--0--0--0--0---0--0--0--0--0--0----||
|-------------------------------------------------------||
|-------------------------------------------------------||
|
|  S  Q..                    S  E.        Q          a
|-------------------------------------------------------||
|-------------------------------------------------------||
|-------------------------------------------------------||
|--0-------------------------0--------------------------||
|--0-------------------------0--------------------------||
|--1-------------------------1-----------/7s=========0--||


   "I am no one."
    EbD5          EbD5F5D5
    Gtrs I, II
        PM------|   PM  PM
    S S S S S S S S S S S S  S  S  S  S
||--------------------------------------|
||o-------------------------10-10-10-10-|
||---------------------------7--7--7--7-|
||--1-0-----------1---3---0--0--0--0--0-|
||o-1-0-0-0-0-0-0-1-0-3-0-0-------------|
||--1-0-0-0-0-0-0-1-0-3-0-0-------------|


  EbD5          EbD5F5D5
      PM------|   PM  PM
  S S S S S S S S S S S S  S  S  S  S
|--------------------------------------||
|-------------------------10-10-10-10-o||
|--------------------------7--7--7--7--||
|-1-0-----------1---3---0--0--0--0--0--||
|-1-0-0-0-0-0-0-1-0-3-0-0-------------o||
|-1-0-0-0-0-0-0-1-0-3-0-0--------------||


 Intro Variation
  D5/Eb     D5      D5/D5      Ebb5
  Gtr III
  ~~~~~~~~~~
  S     +S
|-------------------------------------------|
|-------------------------------------------|
|-------------------------------------------|
|-------------------------------------------|
|-4b4.5r(4)---------------------------------| <- keep bending and releasing for 3 1/2 measures
|-------------------------------------------|
|
| Gtrs I, II
|           PM----|    PM----------|
| E         T T T T E  T T T T S S S S Q
|-------------------------------------------|
|-------------------------------------------|
|-------------------------------------------|
|-0-----------------0-----------------------|
|-0---------0-0-0-0-0--0-0-0-0-0-0-0--------|
|-1---------0-0-0-0-1--0-0-0-0-1-1-1--------|


  D5/D5      D5/D5      Ebb5    N.C.
|-----------------------------------------------------------|
|-----------------------------------------------------------|
|-----------------------------------------------------------|
|-----------------------------------------------------------|
|-4b4.5r(4)-------------------------------------------------|
|-----------------------------------------------------------|
|
|    PM----|    PM----------|    ~~~~~~~~~~~~~~~~~~~~~~~~~~~
| E  T T T T E  T T T T S S S S  S      +S      +S      +S
|-----------------------------------------------------------|
|-----------------------------------------------------------|
|-----------------------------------------------------------|
|-0----------0----------------------------------------------|
|-0--0-0-0-0-0--0-0-0-0-0-0-0---[5]b5.5r(5)b5.5r(5)b5.5r(5)-|
|-1--0-0-0-0-1--0-0-0-0-1-1-1-------------------------------|


  D5/Eb     D5      D5/D5      Ebb5
  ~~~~~~~~~~
  S     +S
|-------------------------------------------|
|-------------------------------------------|
|-------------------------------------------|
|-------------------------------------------|
|-4b4.5r(4)---------------------------------|
|-------------------------------------------|
|
|           PM----|    PM----------|
| E         T T T T E  T T T T S S S S Q
|-------------------------------------------|
|-------------------------------------------|
|-------------------------------------------|
|-0-----------------0-----------------------|
|-0---------0-0-0-0-0--0-0-0-0-0-0-0--------|
|-1---------0-0-0-0-1--0-0-0-0-1-1-1--------|


  D5/D5      D5/D5    EbN.C.
                        H
|---------------------------------------|
|---------------------------------------|
|---------------------------------------|
|---------------------------------------|
|---------------------------------------|
|---------------------------------------|
|
|                         
|    PM----|    PM----|
| E  T T T T E  T T T T S S S S S S S S
|---------------------------------------|
|---------------------------------------|
|---------------------------------------|
|-0----------0------------xsx-xsx-xsx---|
|-0--0-0-0-0-0--0-0-0-0---xsx-xsx-xsx---|
|-1--0-0-0-0-1--0-0-0-0---xsx-xsx-xsx---|

                           ^   ^   ^
The little scratching part is done by rubbing above the pickups, up then 
down twice just as it's done during the last breakdown of "I Only Mean Half 
Of What I Don't Say" from The Respect Issue.


   "I am no one."
    EbD5          EbD5F5D5
    Gtrs I, II
        PM------|   PM  PM
    S S S S S S S S S S S S  S  S  S  S
||--------------------------------------|
||o-------------------------10-10-10-10-|
||---------------------------7--7--7--7-|
||--1-0-----------1---3---0--0--0--0--0-|
||o-1-0-0-0-0-0-0-1-0-3-0-0-------------|
||--1-0-0-0-0-0-0-1-0-3-0-0-------------|


  EbD5          EbD5F5D5
      PM------|   PM  PM
  S S S S S S S S S S S S  S  S  S  S
|--------------------------------------||
|-------------------------10-10-10-10-o||
|--------------------------7--7--7--7--||
|-1-0-----------1---3---0--0--0--0--0--||
|-1-0-0-0-0-0-0-1-0-3-0-0-------------o||
|-1-0-0-0-0-0-0-1-0-3-0-0--------------||


 "This devil in me lives."
  Q=129
  N.C.               D5
  S S E S S E H       S  S  E  S  S  E H
|------------------|------------------------|
|------------------|-10-10-10-10-10-10------|
|------------------|--7--7--7--7--7--7------|
|------------------|--0--0--0--0--0--0------|
|------------------|------------------------|
|-0-0-0-0-0-0------|------------------------|


    N.C.          D             N.C.          D
    Gtrs I, II
     S S E  S S E  E  E  E  E    S S E  S S E  E  E  E  E
||----------------------------|----------------------------||
||o------------------10-10-10-|------------------10-10-10-o||
||-----------------7--7--7--7-|----------------7--7--7--7--||
||-----------------0--0--0--0-|----------------0--0--0--0--||
||o---------------------------|---------------------------o||
||---0-0-0--0-0-0-------------|--0-0-0--0-0-0--------------||
|
|   Gtr III
|    Q      Q      Q     Q       Q      Q      Q     Q
||----------------------------|----------------------------||
||o-13------------13----------|-13------------13----------o||
||---------10-----------10----|--------10-----------10-----||
||----------------------------|----------------------------||
||o---------------------------|---------------------------o||
||----------------------------|----------------------------||


  N.C.          F             N.C.          F
   S S E  S S E  E  E  E  E    S S E  S S E  E  E  E  E
|-------------------8--8--8-|-------------------8--8--8-|
|---------------10-10-10-10-|---------------10-10-10-10-|
|---------------10-10-10-10-|---------------10-10-10-10-|
|---------------------------|---------------------------|
|---------------------------|---------------------------|
|--8-8-8--8-8-8-------------|--8-8-8--8-8-8-------------|
|
|  Q      Q      Q     Q       Q      Q      Q     Q
|---------------------------|---------------------------|
|-13------------13----------|-13------------13----------|
|--------10-----------10----|--------10-----------10----|
|---------------------------|---------------------------|
|---------------------------|---------------------------|
|---------------------------|---------------------------|


    N.C.          D             N.C.          D
     S S E  S S E  E  E  E  E    S S E  S S E  E  E  E  E
||----------------------------|----------------------------||
||o------------------10-10-10-|------------------10-10-10-o||
||-----------------7--7--7--7-|----------------7--7--7--7--||
||-----------------0--0--0--0-|----------------0--0--0--0--||
||o---------------------------|---------------------------o||
||---0-0-0--0-0-0-------------|--0-0-0--0-0-0--------------||
|
|    Q      Q      Q     Q       Q      Q      Q     Q
||----------------------------|----------------------------||
||o-13------------13----------|-13------------13----------o||
||---------10-----------10----|--------10-----------10-----||
||----------------------------|----------------------------||
||o---------------------------|---------------------------o||
||----------------------------|----------------------------||


  N.C.          F             N.C.          F
   S S E  S S E  E  E  E  E    S S E  S S E  S  S S  S  S  S  S  S
|-------------------8--8--8-|----------------8--8----8--8--8--8--8-|
|---------------10-10-10-10-|---------------10-10---10-10-10-10-10-|
|---------------10-10-10-10-|---------------10-10---10-10-10-10-10-|
|---------------------------|--------------------------------------|
|---------------------------|--------------------------------------|
|--8-8-8--8-8-8-------------|--8-8-8--8-8-8------------------------|
|
|  Q      Q      Q     Q       Q      Q      Q          Q
|---------------------------|--------------------------------------|
|-13------------13----------|-13------------13---------------------|
|--------10-----------10----|--------10----------------10----------|
|---------------------------|--------------------------------------|
|---------------------------|--------------------------------------|
|---------------------------|--------------------------------------|


  N.C.
  Gtr II
           >
   Q   Q   Q   Q     Q   Q   Q   Q
|-----------------|-----------------|
|-13------13------|-13------13------|
|-----10------10--|-----10------10--|
|-----------------|-----------------|
|-----------------|-----------------|
|-----------------|-----------------|


  Gtr I
   e  e  e  e  e  e  e  e    e  e  e  e  e  e  e  e
|-20-19-20-21-20-19-20-19-|-20-19-20-21-20-19-20-19-||
|-24-23-24-25-24-23-24-23-|-24-23-24-25-24-23-24-23-||
|-------------------------|-------------------------||
|-------------------------|-------------------------||
|-------------------------|-------------------------||
|-------------------------|-------------------------||


   Breakdown
    D5
    Gtr III
     e    e    e    e  e  e  e    e    e  e  e  e  e  e  e    e
||--20---19---20---21-20-19-20---19-|-20-19-20-21-20-19-20---19--||
||o-24---23---24---25-24-23-24---23-|-24-23-24-25-24-23-24---23-o||
||----------------------------------|----------------------------||
||----------------------------------|----------------------------||
||o---------------------------------|---------------------------o||
||----------------------------------|----------------------------||
|
|   Gtrs I, II
|    PM-----|                     PM--|               PM-----|
|    S S  S E    H             S  E    E  H           E  S S  E
||----------------------------------|----------------------------||
||o---------------------------------|---------------------------o||
||----------------------------------|----------------------------||
||----------------------------------|----------------------------||
||o--0-0--0-0---------------------0-|--0--------------0--0-0--0-o||
||---0-0--0-0---------------------0-|--0--------------0--0-0--0--||


   e    e    e  e  e  e      e  e    e  e  e  e  e  e  e    e
|-20---19---20-21-20-19-----20-19-|-20-19-20-21-20-19-20---19-|
|-24---23---24-25-24-23-----24-23-|-24-23-24-25-24-23-24---23-|
|---------------------------------|---------------------------|
|---------------------------------|---------------------------|
|---------------------------------|---------------------------|
|---------------------------------|---------------------------|
|
|  PM-------------------------------|               PM-----|
|  S S  S H             +E.     E    E  H           E  S S  E
|---------------------------------|---------------------------|
|---------------------------------|---------------------------|
|---------------------------------|---------------------------|
|---------------------------------|---------------------------|
|--0-0--0-0-------------(0)-----0-|--0--------------0--0-0--0-|
|--0-0--0-0-------------(0)-----0-|--0--------------0--0-0--0-|


  Gtr I
   e  e  e  e  e  e  e  e    e  e  e  e  e  e  e  e
|-20-19-20-21-20-19-20-19-|-20-19-20-21-20-19-20-19-|
|-24-23-24-25-24-23-24-23-|-24-23-24-25-24-23-24-23-|
|-------------------------|-------------------------|
|-------------------------|-------------------------|
|-------------------------|-------------------------|
|-------------------------|-------------------------|


    D5
    Gtr III
     e    e    e    e  e  e  e    e    e  e  e  e  e  e  e    e
||--20---19---20---21-20-19-20---19-|-20-19-20-21-20-19-20---19--||
||o-24---23---24---25-24-23-24---23-|-24-23-24-25-24-23-24---23-o||
||----------------------------------|----------------------------||
||----------------------------------|----------------------------||
||o---------------------------------|---------------------------o||
||----------------------------------|----------------------------||
|
|   Gtrs I, II
|    PM-----|                     PM--|               PM-----|
|    S S  S E    H             S  E    E  H           E  S S  E
||----------------------------------|----------------------------||
||o---------------------------------|---------------------------o||
||----------------------------------|----------------------------||
||----------------------------------|----------------------------||
||o--0-0--0-0---------------------0-|--0--------------0--0-0--0-o||
||---0-0--0-0---------------------0-|--0--------------0--0-0--0--||


   e    e    e  e  e  e      e  e    e  e  e  e  e  e  e    e
|-20---19---20-21-20-19-----20-19-|-20-19-20-21-20-19-20---19-|
|-24---23---24-25-24-23-----24-23-|-24-23-24-25-24-23-24---23-|
|---------------------------------|---------------------------|
|---------------------------------|---------------------------|
|---------------------------------|---------------------------|
|---------------------------------|---------------------------|
|
|  PM-------------------------------|               PM-----|
|  S S  S H             +E.     E    E  H           E  S S  E
|---------------------------------|---------------------------|
|---------------------------------|---------------------------|
|---------------------------------|---------------------------|
|---------------------------------|---------------------------|
|--0-0--0-0-------------(0)-----0-|--0--------------0--0-0--0-|
|--0-0--0-0-------------(0)-----0-|--0--------------0--0-0--0-|


  N.C.                      D5
  Gtr II
                             <
  S S E S S E S S E S S E    E  E  E  E  E  E  E  E
|-------------------------|-------------------------||
|-------------------------|-10-10-10-10-10-10-10-10-||
|-------------------------|--7--7--7--7--7--7--7--7-||
|-------------------------|--0--0--0--0--0--0--0--0-||
|-------------------------|-------------------------||
|-1-1-1-1-1-1-1-1-1-1-1-1-|-------------------------||


   Bridge
    D5                                       N.C.
    Gtrs I, II
     E  E  E  E  E  E  E  E    E  E  E  E  E E E E  4x W
||--------------------------|-----------------------||------||
||o-10-10-10-10-10-10-10-10-|-10-10-10-10-10-------o||------||
||---7--7--7--7--7--7--7--7-|--7--7--7--7--7--------||------||
||---0--0--0--0--0--0--0--0-|--0--0--0--0--0--------||------||
||o-------------------------|----------------------o||------||
||--------------------------|----------------0-0-0--||------||


   "This never ending.."
    N.C.          D5            N.C.          D5
    Gtrs I, II
     S S E  S S E  E  E  E  E    S S E  S S E  E  E  E  E
||----------------------------|----------------------------||
||o------------------10-10-10-|------------------10-10-10-o||
||-----------------7--7--7--7-|----------------7--7--7--7--||
||-----------------0--0--0--0-|----------------0--0--0--0--||
||o---------------------------|---------------------------o||
||---0-0-0--0-0-0-------------|--0-0-0--0-0-0--------------||
|
|   Gtr III
|    Q      Q      Q     Q       Q      Q      Q     Q
||----------------------------|----------------------------||
||o-13------------13----------|-13------------13----------o||
||---------10-----------10----|--------10-----------10-----||
||----------------------------|----------------------------||
||o---------------------------|---------------------------o||
||----------------------------|----------------------------||


  N.C.          F             N.C.          F
   S S E  S S E  E  E  E  E    S S E  S S E  E  E  E  E
|-------------------8--8--8-|-------------------8--8--8-|
|---------------10-10-10-10-|---------------10-10-10-10-|
|---------------10-10-10-10-|---------------10-10-10-10-|
|---------------------------|---------------------------|
|---------------------------|---------------------------|
|--8-8-8--8-8-8-------------|--8-8-8--8-8-8-------------|
|
|  Q      Q      Q     Q       Q      Q      Q     Q
|---------------------------|---------------------------|
|-13------------13----------|-13------------13----------|
|--------10-----------10----|--------10-----------10----|
|---------------------------|---------------------------|
|---------------------------|---------------------------|
|---------------------------|---------------------------|


    N.C.          D5            N.C.          D5
     S S E  S S E  E  E  E  E    S S E  S S E  E  E  E  E
||----------------------------|----------------------------||
||o------------------10-10-10-|------------------10-10-10-o||
||-----------------7--7--7--7-|----------------7--7--7--7--||
||-----------------0--0--0--0-|----------------0--0--0--0--||
||o---------------------------|---------------------------o||
||---0-0-0--0-0-0-------------|--0-0-0--0-0-0--------------||
|
|    Q      Q      Q     Q       Q      Q      Q     Q
||----------------------------|----------------------------||
||o-13------------13----------|-13------------13----------o||
||---------10-----------10----|--------10-----------10-----||
||----------------------------|----------------------------||
||o---------------------------|---------------------------o||
||----------------------------|----------------------------||


  N.C.          F             N.C.          F
   S S E  S S E  E  E  E  E    S S E  S S E  S  S S  S  S  S  S  S
|-------------------8--8--8-|----------------8--8----8--8--8--8--8-||
|---------------10-10-10-10-|---------------10-10---10-10-10-10-10-||
|---------------10-10-10-10-|---------------10-10---10-10-10-10-10-||
|---------------------------|--------------------------------------||
|---------------------------|--------------------------------------||
|--8-8-8--8-8-8-------------|--8-8-8--8-8-8------------------------||
|
|  Q      Q      Q     Q       Q      Q      Q          Q
|---------------------------|--------------------------------------||
|-13------------13----------|-13------------13---------------------||
|--------10-----------10----|--------10----------------10----------||
|---------------------------|--------------------------------------||
|---------------------------|--------------------------------------||
|---------------------------|--------------------------------------||


 Build Up
  D5
  Gtr I
   W                +W
|-----------------|------------------|
|-----------------|------------------|
|-----------------|------------------|
|--0--------------|-(0)--------------|
|--0--------------|-(0)--------------|
|--0--------------|-(0)--------------|
|
| Gtr II
|  W                +W
|-----------------|------------------|
|-----------------|------------------|
|-----------------|------------------|
|-----------------|------------------|
|-----------------|------------------|
|--0--------------|-(0)--------------|
|
| Gtr III
|  >
|  Q   Q   Q   Q     Q    Q   Q   Q
|-----------------|------------------|
|-13------13------|-13-------13------|
|-----10------10--|------10------10--|
|-----------------|------------------|
|-----------------|------------------|
|-----------------|------------------|


  +W                 +H       +E  S S  Q
|------------------|-----------------------|
|------------------|-----------------------|
|------------------|-----------------------|
|-(0)--------------|-(0)------(0)----------|
|-(0)--------------|-(0)------(0)----------|
|-(0)--------------|-(0)------(0)-0-0-12\--|
|
| +W                 +W
|------------------|-----------------------|
|------------------|-----------------------|
|------------------|-----------------------|
|------------------|-----------------------|
|------------------|-----------------------|
|-(0)--------------|-(0)-------------------|
|
|  >
|  Q    Q   Q   Q     Q    Q   Q       Q
|------------------|-----------------------|
|-13-------13------|-13-------13-----------|
|------10------10--|------10----------10---|
|------------------|-----------------------|
|------------------|-----------------------|
|------------------|-----------------------|


                                      2/4
  Gtr I
  W          +W           +W           +H
|----------|------------|------------|--------||
|----------|------------|------------|--------||
|----------|------------|------------|--------||
|-0--------|-(0)--------|-(0)--------|-(0)----||
|-0--------|-(0)--------|-(0)--------|-(0)----||
|-0--------|-(0)--------|-(0)--------|-(0)----||
|
| Gtr II
| W          +W           +W           +H
|----------|------------|------------|--------||
|----------|------------|------------|--------||
|----------|------------|------------|--------||
|----------|------------|------------|--------||
|----------|------------|------------|--------||
|-0--------|-(0)--------|-(0)--------|-(0)----||


 [Street Fighter 2 Sample]
               H=H
  N.C.
 4/4          2/4
  Gtr I
  >             <
  W        a   +H     a
|------------|----------||
|------------|----------||
|------------|----------||
|------------|----------||
|------------|----------||
|-7s=======0-|-(0)s===7-||


 Outro Breakdown
  Original Tempo E=184
  Ebb5
 4/4
  Gtr III
   S  S  S    S    S  S  S    S    S  S  S  S  S  S  S  S
|---------------------------------------------------------|
|-11-11-11---11---11-11-11---11---11-11-11-11-11-11-11-11-|
|-14-14-14---14---14-14-14---14---14-14-14-14-14-14-14-14-|
|---------------------------------------------------------|
|---------------------------------------------------------|
|---------------------------------------------------------|
|
| Gtrs I, II
|  PM------------------------------------------------------
|  E     T T  T T  E     T T  T T  S  S  E     S  S  E
|---------------------------------------------------------|
|---------------------------------------------------------|
|---------------------------------------------------------|
|---------------------------------------------------------|
|--0-----0-0--0-0--0-----0-0--0-0--0--0--0-----0--0--0----|
|--1-----1-1--1-1--1-----1-1--1-1--1--1--1-----1--1--1----|


                                                 D5
   S    S    S  S  S  S  S    S    S  S  S  S  S  S  S  S
|----------------------------------------------------------|
|-11---11---11-11-11-11-11---11---11-11-11-11-11-11-11-11--|
|-14---14---14-14-14-14-14---14---14-14-14-14-14-14-14-14--|
|----------------------------------------------------------|
|----------------------------------------------------------|
|----------------------------------------------------------|
|
|---------------------------------------------|      PM
|  T T  T T  E     E     T T  T T  S  S  E     S  S  S  S
|----------------------------------------------------------|
|------------------------------------------------10----10--|
|-------------------------------------------------7-----7--|
|-------------------------------------------------0-----0--|
|--0-0--0-0--0-----0-----0-0--0-0--0--0--0-----------------|
|--1-1--1-1--1-----1-----1-1--1-1--1--1--1-----0-----0-----|


  Ebb5
   S  S  S    S    S  S  S    S    S  S  S  S  S  S  S  S
|---------------------------------------------------------|
|-14-14-14---14---14-14-14---14---14-14-14-14-14-14-14-14-|
|-17-17-17---17---17-17-17---17---17-17-17-17-17-17-17-17-|
|---------------------------------------------------------|
|---------------------------------------------------------|
|---------------------------------------------------------|
|
|  PM------------------------------------------------------
|  E     T T  T T  E     T T  T T  S  S  E     S  S  S  S
|---------------------------------------------------------|
|---------------------------------------------------------|
|---------------------------------------------------------|
|---------------------------------------------------------|
|--0-----0-0--0-0--0-----0-0--0-0--0--0--0-----0--0--0--0-|
|--1-----1-1--1-1--1-----1-1--1-1--1--1--1-----1--1--1--1-|


                                         >
   S  S  S    S    S  S  S    S    S  S  Q.
|--------------------------------------------------*|
|-16-16-16---16---16-16-16---16---16-16-16---------*|
|-19-19-19---19---19-19-19---19---19-19-19---------*|
|--------------------------------------------------*|
|--------------------------------------------------*|
|--------------------------------------------------*|
|
|---------------------------------------|
|  E     T T  T T  E     T T  T T  S  S  S  S Q
|--------------------------------------------------*|
|--------------------------------------------------*|
|--------------------------------------------------*|
|--------------------------------------------------*|
|--0-----0-0--0-0--0-----0-0--0-0--0--0--0---------*|
|--1-----1-1--1-1--1-----1-1--1-1--1--1--1---------*|



Duration Legend
---------------
W - whole; H - half; Q - quarter; E - 8th; S - 16th; T - 32nd; X - 64th; a - acciaccatura
+ - note tied to previous; . - note dotted; .. - note double dotted
Uncapitalized letters represent notes that are staccato (1/2 duration)
Irregular groupings are notated above the duration line
Duration letters will always appear directly above the note/fret number it represents the
duration for.  Duration letters with no fret number below them represent rests.  Multi-
bar rests are notated in the form Wxn, where n is the number of bars to rest for.  Low
melody durations appear below the staff

Tablature Legend
----------------
 h   - hammer-on
 p   - pull-off
 b   - bend
 pb  - pre-bend
 r   - bend release (if no number after the r, then release immediately)
 /\  - slide into or out of (from/to "nowhere")
 s   - legato slide
 S   - shift slide
 - natural harmonic
[n]  - artificial harmonic
n(n) - tapped harmonic
 ~   - vibrato
 tr  - trill
 T   - tap
 TP  - trem. picking
 PM  - palm muting
\n/  - tremolo bar dip; n = amount to dip
 \n  - tremolo bar down
 n/  - tremolo bar up
/n\  - tremolo bar inverted dip
 =   - hold bend; also acts as connecting device for hammers/pulls
 <> - volume swell (louder/softer)
 x   - on rhythm slash represents muted slash
 o   - on rhythm slash represents single note slash

Misc Legend
-----------
 |  - bar
||  - double bar
||o - repeat start
o|| - repeat end
*|  - double bar (ending)
 :  - bar (freetime)
 $  - Segno
 &  - Coda
Tempo markers -  = BPM(8/16=s8/s16), where s8 = swing 8ths, s16 = swing 16ths
comments
print report bad tab
I want to post or [tab]
guest
You may want to rate the tab now too:
select rating
Please do not post tabs as comments. Select "correction" instead!