Oops, an error
Loading. Please wait.

Sleeping Princess In Devils Castle Tab

6,289 views 1 this week
1 commentread comment
1 2 3 4 5
excellent!
x 1
Autoscroll
+/-
esc
set tempo
stop
Contributor
Difficulty
Tuning
intermediate
A# F A# D# G C
WARNING: You are trying to view
                                    content from Ultimate-Guitar.com
                                    in an unauthorized application,
                                    which is prohibited.

                                    Please use an official Ultimate
                                    Guitar Tabs application for iPhone,
                                    iPad or Android to access legitimate
                                    chords, guitar, bass, and drum tabs
                                    from Ultimate-Guitar.com database.

                                    Type "ultimate guitar tabs" in Apple
                                    App Store's or Android Market's
                                    search to find the application.
Enjoy, feel free to make corrections as well: a good part of this song is muddy 
and hard to interpret.

tabbed by: LeFlame
Tuning (A#, F, A#, D#, G, C)

Intro
Acoustic Guitar
|--------------------------------------------------3--------|
|------0-------0--(0)------------0---------------------0----|
|----------5-------------------------5---------------5------|
|----7-------------------------7---------7--(7)----------7--|
|--0-------------------------0------------------------------|
|-----------------------------------------------------------|

Electric Guitar I
|-----------------------------------------------------------|
|-----------------------------------------------------------|
|-----------------------------------------------------------|
|-----------------------------------------------------------|
|-----------------------------------------------------------|
|-----------------------------------------------------------|

Acoustic Guitar
|-----------------------------------------------------------|
|------0-------0--(0)------------0--------------------------|
|----------5-------------------------5----------------------|
|----7-------------------------7---------7------------------|
|--0-------------------------0------------------------------|\
|-----------------------------------------------------------|\\
                                                              \\
                                                                 Together
Electric Guitar I                                             //
|-----------------------------------------------------------|//
|-----------------------------------------------------------|/
|-----------------------------------------------------------|
|--------------------------------------------2--------------|
|--------------------------------------------0--------------|
|-----------------------------------------------------------|
                                             ^-fade in




Verse
Electric Guitar I
|--4~------------------------5~----------------|
|--x-------------------------------------------|
|--2~-------------------2~---------------------|
|--2~-------------------2~---------------------|
|--0~-------------------0~---------------------|\
|----------------------------------------------|\\
                                                 \\
                                                    Together
Electric Guitar II                               //
|-------12------12------12------12------12-----|//
|--9-10----9-10----9-10----9-10----9-10----10--|/
|----------------------------------------------|
|----------------------------------------------|
|----------------------------------------------|
|----------------------------------------------|

Electric Guitar I
|--4~------------------------5~----------------|
|--x-------------------------------------------|
|--2~-------------------2~---------------------|
|--2~-------------------2~---------------------|
|--0~-------------------0~---------------------|\
|----------------------------------------------|\\
                                                 \\
                                                    Together
Electric Guitar II                               //
|-------12------12------12------12------12-----|//
|--9-10----9-10----9-10----9-10----9-10----9---|/
|----------------------------------------------|
|----------------------------------------------|
|----------------------------------------------|
|----------------------------------------------|

Electric Guitar I
|----------------------------------------------|
|----------------------------------------------|
|----------------------------------------------|
|----------------------------------------------|\
|--0-0-0-0---------------0-0-0-0---------------|\\
|--0-0-0-0---------------0-0-0-0---------------| \\
   . . . .               . . . .                    Together, you figure out the timing
Electric Guitar II (t is trilling)               //
|----------------------------------------------|//
|--10t------9t-------7t------------------------|/
|----------------------------------------------|
|----------------------------------------------|
|----------------------------------------------|
|----------------------------------------------|

Electric Guitar I
|----------------------------------------------|
|----------------------------------------------|
|----------------------------------------------|
|----------------------------------------------|\
|--0-0-0-0---------------0-0-0-0---------------|\\
|--0-0-0-0---------------0-0-0-0---------------| \\
   . . . .               . . . .                    Together, again, you figure out the timing
Electric Guitar II (t is trilling)               //
|----------------------------------------------|//
|--10t------9t-------5t---7t------5------------|/
|----------------------------------------------|
|----------------------------------------------|
|----------------------------------------------|
|----------------------------------------------|

Electric Guitar I
|--4~------------------------5~----------------|
|--x-------------------------------------------|
|--2~-------------------2~---------------------|
|--2~-------------------2~---------------------|
|--0~-------------------0~---------------------|\
|----------------------------------------------|\\
                                                 \\
                                                    Together
Electric Guitar II                               //
|-------12------12------12------12------12-----|//
|--9-10----9-10----9-10----9-10----9-10----10--|/
|----------------------------------------------|
|----------------------------------------------|
|----------------------------------------------|
|----------------------------------------------|

Electric Guitar I
|--4~------------------------5~----------------|
|--x-------------------------------------------|
|--2~-------------------2~---------------------|
|--2~-------------------2~---------------------|
|--0~-------------------0~---------------------|\
|----------------------------------------------|\\
                                                 \\
                                                    Together
Electric Guitar II                               //
|-------12------12------12------12------12-----|//
|--9-10----9-10----9-10----9-10----9-10----9---|/
|----------------------------------------------|
|----------------------------------------------|
|----------------------------------------------|
|----------------------------------------------|

Electric Guitar I
|----------------------------------------------|
|----------------------------------------------|
|----------------------------------------------|
|------------------------------let-ring--------|\
|--0-0-0-0---------------0-0-0-0~--------------|\\
|--0-0-0-0---------------0-0-0-0~--------------| \\
   . . . .               . . . .                    Together
Electric Guitar II                               //
|--17~------------12--------------12/14-14~----|//
|----------------------------------------------|/
|----------------------------------------------|
|----------------------------------------------|
|----------------------------------------------|
|----------------------------------------------|

Electric Guitar I
|----------------------------------------------|
|----------------------------------------------|
|----------------------------------------------|
|----------------------------------------------|\
|--0-0-0-0---------------0-0-0-0~--------------|\\
|--0-0-0-0---------------0-0-0-0~--------------| \\
   . . . .               . . . .                    Together
Electric Guitar II                               //
|--(14~)---------------------------------------|//
|----------------------------------------------|/
|----------------------------------------------|
|----------------------------------------------|
|----------------------------------------------|
|----------------------------------------------|



Acoustic Guitar
|-----------------------------------------------------------|
|------0-------0-----------------0--------------------------|
|----------5-------------------------5----------------------|
|----7-------------------------7---------7------------------|\
|--0-------------------------0------------------------------|\\
|-----------------------------------------------------------| \\
                                                                 Together
Electric Guitar I                                             //
|-----------------------------------------------------------|//
|-----------------------------------------------------------|/
|--2~-------------------------------------------------------|
|--2~-------------------------------------------------------|
|--0~-------------------------------------------------------|
|-----------------------------------------xxx\\\------------|
                                          ^pick scrape

Electric Guitar I
|---------------------------------------------------------|
|---------------------------------------------------------|
|---------------------------------------------------------|
|---------------------------------------------------------|\
|--0~--------------------0~-------------------------------|\\
|--0~--------------------0~-------------------------------| \\
                                                               Together, twice
Electric Guitar II                                          //
|---------------------------------------------------------|//
|--------0---------------------0--h1----------------------|/
|------2---------------------2----------------------------|
|----3---------------------3------------------------------|
|--0---------------------0--------------------------------|
|---------------------------------------------------------|


This next part is a bit muddy..
Electric Guitar I
|---------------------------------------------------------|
|---------------------------------------------------------|
|---------------------------------------------------------|
|---------------------------------------------------------|\
|--0~------------------0~---------------------------------|\\
|--0~------------------0~---------------------------------| \\
                                                               Together, twice
Electric Guitar II                                          //
|---------------------------------------------------------|//
|--------0---0-----0-----0-----0--------------------------|/
|----------5-----5-----5-----5----------------------------|
|--------------5-----5-----5-----5------------------------|
|--0------------------------------------------------------|
|---------------------------------------------------------|

Electric Guitar I
|---------------------------------------------------------|
|---------------------------------------------------------|
|---------------------------------------------------------|
|---------------------------------------------------------|\
|--0~--------------0~-------------------------------------|\\
|--0~--------------0~-------------------------------------| \\
                                                               Together
Electric Guitar II                                          //
|---------------------------------------------------------|//
|--------0---1-----------0----1---------------------------|/
|------2-------4-------2----------------------------------|
|----3-----------5---3----------5-------------------------|
|--0---------------0--------------------------------------|
|---------------------------------------------------------|

Electric Guitar I
|---------------------------------------------------------|
|---------------------------------------------------------|
|---------------------------------------------------------|
|---------------------------------------------------------|\
|--0~--------------0~-------------------------------------|\\
|--0~--------------0~-------------------------------------| \\
                                                               Together, second
guitar's timing is different
Electric Guitar II                                          //
|---------------------------------------------------------|//
|--------0---1-----------0--1-----------------------------|/
|------2-------4-------2----------------------------------|
|----3-----------5---3----------5-------------------------|
|--0---------------0--------------------------------------|
|---------------------------------------------------------|

Electric Guitar I
|---------------------------------------------------------|
|---------------------------------------------------------|
|---------------------------------------------------------|
|---------------------------------------------------------|\
|--0~-----------------------------------------------------|\\
|--0~-----------------------------------------------------| \\
                                                               Together, twice
Electric Guitar II                                          //
|---------------------------------------------------------|//
|----------------------0----------------------------------|/
|------------------5--------------------------------------|
|--------------------------5------------------------------|
|---------------------------------------------------------|
|---------------------------------------------------------|

Electric Guitar I
|---------------------------------------------------------|
|---------------------------------------------------------|
|---------------------------------------------------------|
|---------------------------------------------------------|\
|--0~--------------0~-------------------------------------|\\
|--0~--------------0~-------------------------------------| \\
                                                               Together
Electric Guitar II                                          //
|---------------------------------------------------------|//
|--------0-----------0----0-------------------------------|/
|------2-----------5----------5---------------------------|
|----3-----------------5----------------------------------|
|--0------------------------------------------------------|
|---------------------------------------------------------|

Electric Guitar I
|---------------------------------------------------------|
|---------------------------------------------------------|
|---------------------------------------------------------|
|---------------------------------------------------------|\
|--0~--------------0~-------------------------------------|\\
|--0~--------------0~-------------------------------------| \\
                                                               Together
Electric Guitar II                                          //
|---------------------------------------------------------|//
|--------0-----------0----0-------------------------------|/
|------2-----------5--------------------------------------|
|----3-----------------5----------------------------------|
|--0------------------------------------------------------|
|---------------------------------------------------------|



Electric Guitar I
|------------------------------------------------------------|
|------------------------------------------------------------|
|------------------------------------------------------------|
|------------------------------------------------------------|\
|--0~--------------------------------------------------------|\\
|--0~--------------------------------------------------------| \\
                                                                  Together
Electric Guitar II (left speaker)                              //
|------------------------------------------------------------|//
|------------------------------------------------------------|/
|------------------------------------------------------------|
|------------------------------------------------------------|
|------------------------0-0--0-----0-0--0--0--0-0-----0--0--|
|------------------------1-1--1-----1-1--1--1--1-1-----1--1--|
                         . .  .     . .  .  .  . .     .  .

Electric Guitar I
|------------------------------------------------|
|------------------------------------------------|
|------------------------------------------------|
|------------------------------------------------|\
|---------0-0--0--0-0--0--0--0-------------------|\\
|---------1-1--1--1-1--1--1--1-------------------| \\
          . .  .  . .  .  .  .                        Together, four times, third and
fourth times let palm mutes ring
Electric Guitar II (stereo again)                  //
|------------------------------------------------|//
|---------------------------------0-------0------|/
|-------------------------------------5----------|
|-------------------------------5---5---------5--|
|------------------------------------------------|
|------------------------------------------------|

Electric Guitar I
|---------------------------------------------------------|
|---------------------------------------------------------|
|---------------------------------------------------------|
|---------------------------------------------------------|\
|--3------------------------------------------------------|\\
|--3------------------------------------------------------| \\
                                                               Together
Electric Guitar II                                          //
|---------------------------------------------------------|//
|---------------------------------------------------------|/
|---5-4---5-4---5-4---5-4---5-4---------------------------|
|-------5-----5-----5-----5-----5~------------------------|
|---------------------------------------------------------|
|---------------------------------------------------------|
        .     .     .     .
Electric Guitar I
|---------------------------------------------------------|
|---------------------------------------------------------|
|---------------------------------------------------------|
|---------------------------------------------------------|\
|--3~-----------3~----------3~----------------------------|\\
|--3~-----------3~----------3~----------------------------| \\
                                                               Together
Electric Guitar II                                          //
|---------------------------------------------------------|//
|---5-----5-----5-----5-----5~----------------------------|/
|---5-4---5-4---5-4---5-4---5-4---------------------------|
|-------5-----5-----5-----5-----5~------------------------|
|---------------------------------------------------------|
|---------------------------------------------------------|

Electric Guitar I
|---------------------------------------------------------|
|---------------------------------------------------------|
|---------------------------------------------------------|
|---------------------------------------------------------|\
|--3~-----------3~----------3~----------------------------|\\
|--3~-----------3~----------3~----------------------------| \\
                                                               Together
Electric Guitar II                                          //
|---------------------------------------------------------|//
|---------------------------------------------------------|/
|---5-4---7-5-4-5-4---------------------------------------|
|-------5-----------5-------7-----------------------------|
|---------------------------------------------------------|
|---------------------------------------------------------|

Electric Guitar I
|---------------------------------------------------------|
|---------------------------------------------------------|
|---------------------------------------------------------|
|---------------------------------------------------------|\
|--3~-----------3~----------3~----------------------------|\\
|--3~-----------3~----------3~----------------------------| \\
                                                               Together
Electric Guitar II                                          //
|---------------------------------------------------------|//
|---------------------------------------------------------|/
|---5-----4-----------------------------------------------|
|---------------5-----2-----2--3--2-----------------------|
|---------------------------------------------------------|
|---------------------------------------------------------|

Electric Guitar I
|---------------------------------------------------------|
|---------------------------------------------------------|
|---------------------------------------------------------|
|---------------------------------------------------------|\
|--3~-----------3~----------------------------------------|\\
|--3~-----------3~----------------------------------------| \\
                                                               Together
Electric Guitar II                                          //
|---------------------------------------------------------|//
|---------------------------------------------------------|/
|---5-----4-----7-----5-----------------------------------|
|---------------------------------------------------------|
|---------------------------------------------------------|
|---------------------------------------------------------|


Electric Guitar I
|---------------------------------------------------------|
|---------------------------------------------------------|
|---------------------------------------------------------|
|---------------------------------------------------------|\
|--3~-----------3~----------3~----------------------------|\\
|--3~-----------3~----------3~----------------------------| \\
                                                               Together, twice
Electric Guitar II                                          //
|---------------------------------------------------------|//
|---------------------------------------------------------|/
|---5-4---7-5-4-5-4---7-5-4-5-4---------------------------|
|-------5-----------5-----------5~------------------------|
|---------------------------------------------------------|
|---------------------------------------------------------|


Electric Guitar I
|---------------------------------------------------------|
|--4~----4------4~----4-----4~----------------------------|
|--x-----x------x-----x-----x-----------------------------|
|--3~----3------3~----3-----3~----------------------------|\
|--3~----3------3~----3-----3~----------------------------|\\
|--3~----3------3~----3-----3~----------------------------| \\
                                                               Together
Electric Guitar II                                          //
|---------------------------------------------------------|//
|---------------------------------------------------------|/
|---5-----4-----------------------------------------------|
|---------------5-----2-----2--3--2-----------------------|
|---------------------------------------------------------|
|---------------------------------------------------------|

Electric Guitar I
|---------------------------------------------------------|
|--4~-----4-----4~----4-----4~----------------------------|
|--x------x-----x-----x-----x-----------------------------|
|--3~-----3-----3~----3-----3~----------------------------|\
|--3~-----3-----3~----3-----3~----------------------------|\\
|--3~-----3-----3~----3-----3~----------------------------| \\
                                                               Together
Electric Guitar II                                          //
|---------------------------------------------------------|//
|---------------------------------------------------------|/
|---5-----4-----7-----5-----------------------------------|
|---------------------------------------------------------|
|---------------------------------------------------------|
|---------------------------------------------------------|


Electric Guitar I
|---------------------------------------------------------|
|--4~-----------4~----------4~----------------------------|
|--x------------x-----------x-----------------------------|
|--3~-----3~----3~----3~----3~----------------------------|\
|--3~-----3~----3~----3~----3~----------------------------|\\
|--3~-----3~----3~----3~----3~----------------------------| \\
                                                               Together, twice
Electric Guitar II                                          //
|---------------------------------------------------------|//
|---------------------------------------------------------|/
|---5-4---5-4---5-4---5-4---7-5-4-5-----------------------|
|-------5-----5-----5-----5-------------------------------|
|---------------------------------------------------------|
|---------------------------------------------------------|

Electric Guitar I
|---------------------------------------------------------|
|---------------------------------------------------------|
|---------------------------------------------------------|
|---------------------------------------------------------|\
|--0~-----------------------------------------------------|\\
|--0~-----------------------------------------------------| \\
                                                               Together
Electric Guitar II                                          //
|---------------------------------------------------------|//
|---8-----------------------------------------------------|/
|-----5-4-5-4---------------------------------------------|
|-------------5-7----5------5/7---------------------------|
|---------------------------------------------------------|
|---------------------------------------------------------|

Electric Guitar I
|---------------------------------------------------------|
|---------------------------------------------------------|
|---------------------------------------------------------|
|---------------------------------------------------------|\
|--0~-----------------------------------------------------|\\
|--0~-----------------------------------------------------| \\
                                                               Together
Electric Guitar II                                          //
|---------------------------------------------------------|//
|---8-----------------------------------------------------|/
|-----5-4-5-4---------------------------------------------|
|-------------5-7----9------10----------------------------|
|---------------------------------------------------------|
|---------------------------------------------------------|

Electric Guitar I
|---------------------------------------------------------|
|---------------------------------------------------------|
|---------------------------------------------------------|
|---------------------------------------------------------|\
|--3~-----------------------------------------------------|\\
|--3~-----------------------------------------------------| \\
                                                               Together
Electric Guitar II                                          //
|---------------------------------------------------------|//
|---8-----------------------------------------------------|/
|-----5-4-5-4---------------------------------------------|
|-------------5-7----5------5/7---------------------------|
|---------------------------------------------------------|
|---------------------------------------------------------|

Electric Guitar I
|---------------------------------------------------------|
|---------------------------------------------------------|
|---------------------------------------------------------|
|---------------------------------------------------------|\
|--0~-----------------------------------------------------|\\
|--0~-----------------------------------------------------| \\
                                                               Together
Electric Guitar II                                          //
|---------------------------------------------------------|//
|---8-----------------------------------------------------|/
|-----5-4-5-4---------------------------------------------|
|-------------5-7----9------10----------------------------|
|---------------------------------------------------------|
|---------------------------------------------------------|

Electric Guitar I
|---------------------------------------------------------|
|---------------------------------------------------------|
|---------------------------------------------------------|
|---------------------------------------------------------|\
|--0~-----------------------------------------------------|\\
|--0~-----------------------------------------------------| \\
                                                               Together
Electric Guitar II                                          //
|---------------------------------------------------------|//
|---8-----------------------------------------------------|/
|-----5-4-5-4---------------------------------------------|
|-------------5-7----5------5/7---------------------------|
|---------------------------------------------------------|
|---------------------------------------------------------|

Electric Guitar I
|---------------------------------------------------------|
|---------------------------------------------------------|
|---------------------------------------------------------|
|---------------------------------------------------------|\
|--0~-----------------------------------------------------|\\
|--0~-----------------------------------------------------| \\
                                                               Together
Electric Guitar II                                          //
|---------------------------------------------------------|//
|---8-----------------------------------------------------|/
|-----5-4-5-4---------------------------------------------|
|-------------5-7----9------10----------------------------|
|---------------------------------------------------------|
|---------------------------------------------------------|


Electric Guitar I
|---------------------------------------------------------|
|---------------------------------------------------------|
|---------------------------------------------------------|
|---------------------------------------------------------|\
|--3~-----------------------------------------------------|\\
|--3~-----------------------------------------------------| \\
                                                               Together
Electric Guitar II                                          //
|---------------------------------------------------------|//
|---------------------------------------------------------|/
|---------------------------------------------------------|
|-(10)----------------------------------------------------|
|---------------------------------------------------------|
|---------------------------------------------------------|


Electric Guitar I
|---------------------------------------------------------|
|---------------------------------------------------------|
|---------------------------------------------------------|
|-----------5---------------------------------------------|\
|--3~-------3---------------------------------------------|\\
|--2~-----------------------------------------------------| \\
                                                               Together
Electric Guitar II                                          //
|---------------------------------------------------------|//
|--12------/8---------------------------------------------|/
|---------------------------------------------------------|
|---------------------------------------------------------|
|---------------------------------------------------------|
|---------------------------------------------------------|

Electric Guitar I
|---------------------------------------------------------|
|---------------------------------------------------------|
|---------------------------------------------------------|
|---------------------------------------------------------|\
|--0--0-----------0--0----------0--0--------0--0----------|\\
|--0--0-----------0--0----------0--0--------0--0----------| \\
   .  .           .  .          .  .        .  .               Together
Electric Guitar II                                          //
|---------------------------------------------------------|//
|--/13----------------------------------------------------|/
|---------------------------------------------------------|
|---------------------------------------------------------|
|---------------------------------------------------------|
|---------------------------------------------------------|

Electric Guitar I
|---------------------------------------|
|---------------------------------------|
|---------------------------------------|
|---------------------------------------|\
|--0--0-----------0--0------------------|\\
|--0--0-----------0--0------------------| \\
   .  .           .  .                       Together, twice
Electric Guitar II                        //
|---------------------------------------|//
|--------0--------------------0-----0---|/
|-----------5--------------------5------|
|--5--5-----------------5--5------------|
|---------------------------------------|
|---------------------------------------|
   .  .                 .  .           

Electric Guitar I
|---------------------------------------------------------|
|---------------------------------------------------------|
|---------------------------------------------------------|
|---------------------------------------------------------|
|--3~-------------3~--------------------------------------|
|--3~-------------3~--------------------------------------|

Electric Guitar I
|---------------------------------------|
|---------------------------------------|
|---------------------------------------|
|---------------------------------------|\
|--0--0-----------0--0------------------|\\
|--0--0-----------0--0------------------| \\
   .  .           .  .                       Together, twice
Electric Guitar II                        //
|---------------------------------------|//
|--------0--------------------0-----0---|/
|-----------5--------------------5------|
|--5--5-----------------5--5------------|
|---------------------------------------|
|---------------------------------------|
   .  .                 .  .           

Electric Guitar I
|---------------------------------------------------------|
|---------------------------------------------------------|
|---------------------------------------------------------|
|---------------------------------------------------------|
|--3~-------------3~--------------------------------------|
|--3~-------------3~--------------------------------------|

Outro
Electric Guitar I
|---------------------------------------------------------|
|---------------------------------------------------------|
|---------------------------------------------------------|
|---------------------------------------------------------|
|--0--0-----------0--0------------------------------------|
|--0--0-----------0--0------------------------------------|
   .  .           .  .
comments
We did not receive enough feedback on this tab! Please rate:
print report bad tab
1 2 3 4 5
1 comment total.
0 reply
TwoTwenty2 wrote on March 23 2010, 06:03 pm

Here's what I have for the little intro bit. I may be wrong though. sounds good to me.


|-----------------------------------------3---------|
|------0-----0-----------0-----0---------------0----|
|---------5-----------------5---------------5-------|
|----7-----------------7----------5--------------5--|
|--0-----------------0------------------------------|
|---------------------------------------------------|

I want to post or [tab]
guest
You may want to rate the tab now too:
select rating
Please do not post tabs as comments. Select "correction" instead!