Oops, an error
Loading. Please wait.

Empty Bass Tab

ver1
ver1

Whole song

Interactive

More versions @911Tabs.com
617 views 3 this week
no commentswrite comment
1 2 3 4 5
please rate
Autoscroll
+/-
esc
set tempo
stop
Contributor
WARNING: You are trying to view
                                    content from Ultimate-Guitar.com
                                    in an unauthorized application,
                                    which is prohibited.

                                    Please use an official Ultimate
                                    Guitar Tabs application for iPhone,
                                    iPad or Android to access legitimate
                                    chords, guitar, bass, and drum tabs
                                    from Ultimate-Guitar.com database.

                                    Type "ultimate guitar tabs" in Apple
                                    App Store's or Android Market's
                                    search to find the application.
Emperor - Empty
Bass


G||------|-------------------------------------|--------------------------|
D||------|-------------------------------------|--------------------------|
A||------|-------------------------------------|--------------------------|
E||------|--------------5----------------------|--2----0------------------|
B||------|--2--5--2--5-------1--1--1--0--0--0--|------------2--5--1--0----|



-------------------------------------|--------------------------|
-------------------------------------|--------------------------|
-------------------------------------|--------------------------|
--------------5----------------------|--2----0------------------|
--2--5--2--5-------1--1--1--0--0--0--|------------2--5--1--0----|



-------------------------------------|---------------------------------|
-------------------------------------|--4----2-------------------------|
----------------------------2--2--2--|---------------------2h3h2h3h2h3-|
--------------5----------------------|---------------------------------|
--2--5--2--5-------1--1--1-----------|------------2--5--1--------------|



-------------------------------------|--------------------------|
-------------------------------------|--------------------------|
-------------------------------------|--------------------------|
--------------5----------------------|--2----0------------------|
--2--5--2--5-------1--1--1--0--0--0--|------------2--5--1--0----|



--------------------------------------------------|
--------------------------------------------------|
--------------------------------------------------|
--5-5-5-5-5-5-7-7-7-7-7-7-8-8-8-8-8-8-------------|
--------------------------------------9-9-9-9-9-9-|



--------------------------------------------------|
--------------------------------------------------|
--------------------------------------------------|
--------------------------------------7-7-7-7-7-7-|
--8-8-8-8-8-8-6-6-6-6-6-6-8-8-8-8-8-8-------------|



-------------------------------------------|------------------------------|
-------------------------------------------|-------4--5--4----------------|
-------------------------------------------|--7-------------4--5--4--3----|
-------------------------------------------|------------------------------|
--8-8-8-8-8-8-7-7-7-7-7-7-5-5-5-5-5-5-7----|------------------------------|



--------------------------------------------------|
--------------------------------------------------|
--------------------------------------------------|
--5-5-5-5-5-5-7-7-7-7-7-7-8-8-8-8-8-8-------------|
--------------------------------------9-9-9-9-9-9-|



--------------------------------------------------|
--------------------------------------------------|
--------------------------------------------------|
--------------------------------------7-7-7-7-7-7-|
--8-8-8-8-8-8-6-6-6-6-6-6-8-8-8-8-8-8-------------|



-------------------------------------------|------------------------------|
-------------------------------------------|-------4--5--4----------------|
-------------------------------------------|--7-------------4--5--4--3----|
-------------------------------------------|------------------------------|
--8-8-8-8-8-8-7-7-7-7-7-7-5-5-5-5-5-5-7----|------------------------------|



---------------------6----|-------------------------------------|
--------------------------|-------------------------------------|
--4--5--4--3----4---------|-------------------------------------|
--------------------------|--------------5----------------------|
--------------------------|--2--5--2--5-------1--1--1--0--0--0--|



--------------------------|-------------------------------------|
--------------------------|-------------------------------------|
--------------------------|-------------------------------------|
--2----0------------------|--------------5----------------------|
------------2--5--1--0----|--2--5--2--5-------1--1--1--0--0--0--|



--------------------------|-------------------------------------|
--------------------------|-------------------------------------|
--------------------------|----------------------------2--2--2--|
--2----0------------------|--------------5----------------------|
------------2--5--1--0----|--2--5--2--5-------1--1--1-----------|



---------------------------------|-------------------------------------|
--4----2-------------------------|-------------------------------------|
---------------------2h3h2h3h2h3-|-------------------------------------|
---------------------------------|--------------5----------------------|
------------2--5--1--------------|--2--5--2--5-------1--1--1--0--0--0--|



--------------------------|--------------------------------------------------|
--------------------------|--------------------------------------------------|
--------------------------|--------------------------------------------------|
--2----0------------------|--5-5-5-5-5-5-7-7-7-7-7-7-8-8-8-8-8-8-------------|
------------2--5--1--0----|--------------------------------------9-9-9-9-9-9-|



--------------------------------------------------|
--------------------------------------------------|
--------------------------------------------------|
--------------------------------------7-7-7-7-7-7-|
--8-8-8-8-8-8-6-6-6-6-6-6-8-8-8-8-8-8-------------|



-------------------------------------------|------------------------------|
-------------------------------------------|-------4--5--4----------------|
-------------------------------------------|--7-------------4--5--4--3----|
-------------------------------------------|------------------------------|
--8-8-8-8-8-8-7-7-7-7-7-7-5-5-5-5-5-5-7----|------------------------------|



--------------------------------------------------|
--------------------------------------------------|
--------------------------------------------------|
--5-5-5-5-5-5-7-7-7-7-7-7-8-8-8-8-8-8-------------|
--------------------------------------9-9-9-9-9-9-|



--------------------------------------------------|
--------------------------------------------------|
--------------------------------------------------|
--------------------------------------7-7-7-7-7-7-|
--8-8-8-8-8-8-6-6-6-6-6-6-8-8-8-8-8-8-------------|



-------------------------------------------|------------------------------|
-------------------------------------------|-------4--5--4----------------|
-------------------------------------------|--7-------------4--5--4--3----|
-------------------------------------------|------------------------------|
--8-8-8-8-8-8-7-7-7-7-7-7-5-5-5-5-5-5-7----|------------------------------|



---------------------6----|-----------------------------|
--------------------------|-------3--------3--2--1------|
--4--5--4--3----4---------|--------------------------4--|
--------------------------|--1-------1--1----------0----|
--------------------------|-----------------------------|



-----------------------------|-------------------------|
--3--------6--7--6--------0--|--3----------3-----2--2--|
--------------------2--3-----|-------------------------|
-----1--4-----5--4-----------|-----1----1-----0-----0--|
--------------3-----0--1--0--|-------------------------|



--------------------------|-------------------|------------------|
--3-------3---8--------3--|-------------------|------------------|
--------------------------|-------------------|------------------|
-----1-1---------6--1-----|-------------------|------------------|
--------------------------|--3----------------|------------------|



------------------|-------------------|----------------------------------------|
------------------|-------------------|----------------------------------------|
------------------|-------------------|----------------------------------------|
------------------|-------------------|----------------------------------------|
------------------|--------------5/---|--3--3-3-3--3--3--3--3--3-3-3--3--3--3--|



----------------------------------------|
----------------------------------------|
----------------------------------------|
----------------------------------------|
--3--3-3-3--3--3--3--3--3-3-3--3--7--4--|



----------------------------------------|
----------------------------------------|
----------------------------------------|
----------------------------------------|
--3--3-3-3--3--3--3--3--3-3-3--3--7--4--|



---------------------------------------|
---------------------------------------|
---------------------------------------|
---------------------------------------|
--3--3-3-3--3/-6--6--6/-9--9--9/-6--6--|



----------------------------------------|
----------------------------------------|
----------------------------------------|
----------------------------------------|
--3--3-3-3--3--3--3--3--3-3-3--3--3--3--|



----------------------------------------|
----------------------------------------|
----------------------------------------|
----------------------------------------|
--3--3-3-3--3--3--3--3--3-3-3--3--7--4--|



----------------------------------------|
----------------------------------------|
----------------------------------------|
----------------------------------------|
--3--3-3-3--3--3--3--3--3-3-3--3--7--4--|



---------------------------------------|----------------------------------|
---------------------------------------|----------------------------------|
---------------------------------------|-----5-----5----------------------|
---------------------------------------|----------------6--5--4--4--5--6--|
--3--3-3-3--3/-6--6--6/-9--9--9/-6--6--|--3-----2-------------------------|



----------------------------------|--------------------------------------|
----------------------------------|--------------------------------------|
----------------------------------|-----5--4--5--------------------------|
----------------------------------|--------------6--5--6-----6--6--6--8--|
--6--5--3--2----0--0--2--3--5--2--|--3--------------------6--------------|



--------------------------------------|----------------------------------|
--------------------------------------|----------------------------------|
--7--8--5--7--8-----------------------|-----5-----5----------------------|
-----------------8--5-----------------|----------------6--5--4--4--5--6--|
-----------------------2--3--5--6--2--|--3-----2-------------------------|



----------------------------------|--------------------------------------|
----------------------------------|--------------------------------------|
----------------------------------|-----5--4--5--------------------------|
----------------------------------|--------------6--5--6-----6--6--6--8--|
--6--5--3--2----0--0--2--3--5--2--|--3--------------------6--------------|



--------------------------------------|--------------------------------------|
--------------------------------------|--------------------------------------|
--7--8--5--7--8-----------------------|--------7/-8-----7/-8-----------------|
-----------------8--5-----------------|--0--0--------0--------0--4/-3--0--4/-|
-----------------------2--3--5--6--2--|--------------------------------------|



--------------------------------------|--------------------------------------|
--------------------------------------|--------------------------------------|
--------5/-6-----5/-6-----3/-4-----3--|--------7/-8-----7/-8-----------------|
--3--0--------0--------0--------0-----|--0--0--------0--------0--4/-3--0--4/-|
--------------------------------------|--------------------------------------|



--------------------------------------|--------------------------------------|
--------------------------------------|--------------------------------------|
--------5/-6-----5/-6-----3/-4-----3--|--------7/-8-----7/-8-----------------|
--3--0--------0--------0--------0-----|--0--0--------0--------0--4/-3--0--4/-|
--------------------------------------|--------------------------------------|



--------------------------------------|--------------------------------------|
--------------------------------------|--------------------------------------|
--------5/-6-----5/-6-----3/-4-----3--|--------7/-8-----7/-8-----------------|
--3--0--------0--------0--------0-----|--0--0--------0--------0--4/-3--0--4/-|
--------------------------------------|--------------------------------------|



--------------------------------------|----------------------------------|
--------------------------------------|----------------------------------|
--------5/-6-----5/-6-----3/-4-----3--|-----5-----5----------------------|
--3--0--------0--------0--------0-----|----------------6--5--4--4--5--6--|
--------------------------------------|--3-----2-------------------------|



----------------------------------|--------------------------------------|
----------------------------------|--------------------------------------|
----------------------------------|-----5--4--5--------------------------|
----------------------------------|--------------6--5--6-----6--6--6--8--|
--6--5--3--2----0--0--2--3--5--2--|--3--------------------6--------------|



--------------------------------------|----------------------------------|
--------------------------------------|----------------------------------|
--7--8--5--7--8-----------------------|-----5-----5----------------------|
-----------------8--5-----------------|----------------6--5--4--4--5--6--|
-----------------------2--3--5--6--2--|--3-----2-------------------------|



----------------------------------|--------------------------------------|
----------------------------------|--------------------------------------|
----------------------------------|-----5--4--5--------------------------|
----------------------------------|--------------6--5--6-----6--6--6--8--|
--6--5--3--2----0--0--2--3--5--2--|--3--------------------6--------------|



--------------------------------------|-------------------------------------|
--------------------------------------|-------------------------------------|
--7--8--5--7--8-----------------------|-------------------------------------|
-----------------8--5-----------------|--------------5----------------------|
-----------------------2--3--5--6--2--|--2--5--2--5-------1--1--1--0--0--0--|



--------------------------|-------------------------------------|
--------------------------|-------------------------------------|
--------------------------|-------------------------------------|
--2----0------------------|--------------5----------------------|
------------2--5--1--0----|--2--5--2--5-------1--1--1--0--0--0--|



--------------------------|-------------------------------------|
--------------------------|-------------------------------------|
--------------------------|----------------------------2--2--2--|
--2----0------------------|--------------5----------------------|
------------2--5--1--0----|--2--5--2--5-------1--1--1-----------|



---------------------------------|-------------------------------------|
--4----2-------------------------|-------------------------------------|
---------------------2h3h2h3h2h3-|-------------------------------------|
---------------------------------|--------------5----------------------|
------------2--5--1--------------|--2--5--2--5-------1--1--1--0--0--0--|



--------------------------|--------------------------------------------------|
--------------------------|--------------------------------------------------|
--------------------------|--------------------------------------------------|
--2----0------------------|--5-5-5-5-5-5-7-7-7-7-7-7-8-8-8-8-8-8-------------|
------------2--5--1--0----|--------------------------------------9-9-9-9-9-9-|



--------------------------------------------------|
--------------------------------------------------|
--------------------------------------------------|
--------------------------------------7-7-7-7-7-7-|
--8-8-8-8-8-8-6-6-6-6-6-6-8-8-8-8-8-8-------------|



-------------------------------------------|------------------------------|
-------------------------------------------|-------4--5--4----------------|
-------------------------------------------|--7-------------4--5--4--3----|
-------------------------------------------|------------------------------|
--8-8-8-8-8-8-7-7-7-7-7-7-5-5-5-5-5-5-7----|------------------------------|



--------------------------------------------------|
--------------------------------------------------|
--------------------------------------------------|
--5-5-5-5-5-5-7-7-7-7-7-7-8-8-8-8-8-8-------------|
--------------------------------------9-9-9-9-9-9-|



--------------------------------------------------|
--------------------------------------------------|
--------------------------------------------------|
--------------------------------------7-7-7-7-7-7-|
--8-8-8-8-8-8-6-6-6-6-6-6-8-8-8-8-8-8-------------|



-------------------------------------------|------------------------------|
-------------------------------------------|-------4--5--4----------------|
-------------------------------------------|--7-------------4--5--4--3----|
-------------------------------------------|------------------------------|
--8-8-8-8-8-8-7-7-7-7-7-7-5-5-5-5-5-5-7----|------------------------------|



---------------------6----|------|--------------------------|
--------------------------|------|--------------------------|
--4--5--4--3----4---------|------|--------------------------|
--------------------------|------|--------------------5--4--|
--------------------------|------|--3--3--3--3--3--3--5--3--|



--------------------------|--------------------------|
--------------------------|--------------------------|
--------------------------|--------------------------|
--------------------5--4--|--------------------5--4--|
--3--3--3--3--3--3--5--3--|--3--3--3--3--3--3--5--3--|



--------------------------|----------------------------------|
--------------------------|----------------------------------|
--------------------------|----------------------------------|
--------------------5--4--|--2-2---------3-3-6-6-------------|
--3--3--3--3--3--3--5--3--|------0-0-1-1---------6-6-5-5-3-3-|



----------------------------------|----------------------------------|
----------------------------------|----------------------------------|
----------------------------------|----------------------------------|
--6-6---------6-6-3-3-5-5-6-6-----|--2-2---------3-3-6-6-------------|
------1-1-2-2-----------------6-6-|------0-0-1-1---------6-6-5-5-3-3-|



----------------------------------|--------------------------|
----------------------------------|--------------------------|
----------------------------------|--------------------------|
--6-6---------6-6-3-3-5-5-6-6-----|--------------------5--4--|
------1-1-2-2-----------------6-6-|--3--3--3--3--3--3--5--3--|



--------------------------|--------------------------|
--------------------------|--------------------------|
--------------------------|--------------------------|
--------------------5--4--|--------------------5--4--|
--3--3--3--3--3--3--5--3--|--3--3--3--3--3--3--5--3--|



--------------------------|----------------------------------|
--------------------------|----------------------------------|
--------------------------|----------------------------------|
--------------------5--4--|--2-2---------3-3-6-6-------------|
--3--3--3--3--3--3--5--3--|------0-0-1-1---------6-6-5-5-3-3-|



----------------------------------|----------------------------------|
----------------------------------|----------------------------------|
----------------------------------|----------------------------------|
--6-6---------6-6-3-3-5-5-6-6-----|--2-2---------3-3-6-6-------------|
------1-1-2-2-----------------6-6-|------0-0-1-1---------6-6-5-5-3-3-|



----------------------------------|------|
----------------------------------|------|
----------------------------------|------|
--6-6---------6-6-3-3-5-5-6-6-----|------|
------1-1-2-2-----------------6-6-|------|



--------------------------------------|--------------------------------------|
--------------------------------------|--------------------------------------|
--------7/-8-----7/-8-----------------|--------5/-6-----5/-6-----3/-4-----3--|
--0--0--------0--------0--4/-3--0--4/-|--3--0--------0--------0--------0-----|
--------------------------------------|--------------------------------------|



--------------------------------------|--------------------------------------|
--------------------------------------|--------------------------------------|
--------7/-8-----7/-8-----------------|--------5/-6-----5/-6-----3/-4-----3--|
--0--0--------0--------0--4/-3--0--4/-|--3--0--------0--------0--------0-----|
--------------------------------------|--------------------------------------|



--------------------------------------|--------------------------------------|
--------------------------------------|--------------------------------------|
--------7/-8-----7/-8-----------------|--------5/-6-----5/-6-----3/-4-----3--|
--0--0--------0--------0--4/-3--0--4/-|--3--0--------0--------0--------0-----|
--------------------------------------|--------------------------------------|



--------------------------------------|--------------------------------------|
--------------------------------------|--------------------------------------|
--------7/-8-----7/-8-----------------|--------5/-6-----5/-6-----3/-4-----3--|
--0--0--------0--------0--4/-3--0--4/-|--3--0--------0--------0--------0-----|
--------------------------------------|--------------------------------------|



--------------------------------------------------|
--------------------------------------------------|
--------------------------------------------------|
--5-5-5-5-5-5-7-7-7-7-7-7-8-8-8-8-8-8-------------|
--------------------------------------9-9-9-9-9-9-|



--------------------------------------------------|
--------------------------------------------------|
--------------------------------------------------|
--------------------------------------7-7-7-7-7-7-|
--8-8-8-8-8-8-6-6-6-6-6-6-8-8-8-8-8-8-------------|



-------------------------------------------|------------------------------|
-------------------------------------------|-------4--5--4----------------|
-------------------------------------------|--7-------------4--5--4--3----|
-------------------------------------------|------------------------------|
--8-8-8-8-8-8-7-7-7-7-7-7-5-5-5-5-5-5-7----|------------------------------|



--------------------------------------------------|
--------------------------------------------------|
--------------------------------------------------|
--5-5-5-5-5-5-7-7-7-7-7-7-8-8-8-8-8-8-------------|
--------------------------------------9-9-9-9-9-9-|



--------------------------------------------------|
--------------------------------------------------|
--------------------------------------------------|
--------------------------------------7-7-7-7-7-7-|
--8-8-8-8-8-8-6-6-6-6-6-6-8-8-8-8-8-8-------------|



-------------------------------------------|------------------------------|
-------------------------------------------|-------4--5--4----------------|
-------------------------------------------|--7-------------4--5--4--3----|
-------------------------------------------|------------------------------|
--8-8-8-8-8-8-7-7-7-7-7-7-5-5-5-5-5-5-7----|------------------------------|



---------------------6----||
--------------------------||
--4--5--4--3----4---------||
--------------------------||
--------------------------||
comments
We did not receive enough feedback on this tab! Please rate:
print report bad tab
1 2 3 4 5
I want to post or [tab]
guest
You may want to rate the tab now too:
select rating
Please do not post tabs as comments. Select "correction" instead!