Oops, an error
Loading. Please wait.

Empty Tab

ver1
ver1

Whole song

Interactive

More versions @911Tabs.com
3,298 views 6 this week
no commentswrite comment
1 2 3 4 5
please rate
add to favorites launch autoscroll
font size
0
reset
Autoscroll
+/-
esc
set tempo
stop
Contributor
WARNING: You are trying to view
                                    content from Ultimate-Guitar.com
                                    in an unauthorized application,
                                    which is prohibited.

                                    Please use an official Ultimate
                                    Guitar Tabs application for iPhone,
                                    iPad or Android to access legitimate
                                    chords, guitar, bass, and drum tabs
                                    from Ultimate-Guitar.com database.

                                    Type "ultimate guitar tabs" in Apple
                                    App Store's or Android Market's
                                    search to find the application.
Emperor - Empty


Tablature explanation :

/        = slide up
\        = slide down
h        = hammer on
p        = pull off
fb       = full bend (whole step)
fb(r)    = full bend and relaese
hb       = half bend (half step)
~~~~~~   = vibrato (tremolo or with left hand)
x        = Muted string string

Ishahn


E||------|-------------------------------------|
B||------|-------------------------------------|
G||------|-------------------------------------|
D||------|-------------------------------------|
A||------|-------------------------------------|
E||------|--------------5~---1--1--1--0--0--0--|
B||------|--2--5--2--5-------1--1--1--0--0--0--|



---------------------------------|-------------------------------------|
---------------------------------|-------------------------------------|
---------------------------------|-------------------------------------|
--4----2-------------------------|-------------------------------------|
--1----3----------3--2h3h2h3h2h3-|-------------------------------------|
---------------------------------|--------------5~---1--1--1--0--0--0--|
------------2--5-----------------|--2--5--2--5-------1--1--1--0--0--0--|



---------------------------------|-------------------------------------|
---------------------------------|-------------------------------------|
---------------------------------|-------------------------------------|
--4----2-------------------------|-------------------------------------|
--1----3----------3--2h3h2h3h2h3-|-------------------------------------|
---------------------------------|--------------5~---1--1--1--0--0--0--|
------------2--5-----------------|--2--5--2--5-------1--1--1--0--0--0--|



---------------------------------|-------------------------------------|
---------------------------------|-------------------------------------|
---------------------------------|-------------------------------------|
--4----2-------------------------|-------------------------------------|
--1----3----------3--2h3h2h3h2h3-|-------------------------------------|
---------------------------------|--------------5~---1--1--1--0--0--0--|
------------2--5-----------------|--2--5--2--5-------1--1--1--0--0--0--|



---------------------------------|
---------------------------------|
---------------------------------|
--4----2-------------------------|
--1----3----------3--2h3h2h3h2h3-|
---------------------------------|
------------2--5-----------------|



--------------------------------------------------|
--------------------------------------------------|
--------------------------------------------------|
--------------------------------------------------|
--------------------------------------------------|
--5-5-5-5-5-5-7-7-7-7-7-7-8-8-8-8-8-8-------------|
--------------------------------------9-9-9-9-9-9-|



--------------------------------------------------|
--------------------------------------------------|
--------------------------------------------------|
--------------------------------------------------|
--------------------------------------------------|
--------------------------------------7-7-7-7-7-7-|
--8-8-8-8-8-8-6-6-6-6-6-6-8-8-8-8-8-8-------------|



-------------------------------------------|--------------------------|
-------------------------------------------|--------------------------|
-------------------------------------------|--------------------------|
-------------------------------------------|--------------------------|
--------------------------------------9----|--7----6------------------|
-------------------------------------------|------------6h-7h-6-------|
--8-8-8-8-8-8-7-7-7-7-7-7-5-5-5-5-5-5------|---------------------7----|



--------------------------------------------------|
--------------------------------------------------|
--------------------------------------------------|
--------------------------------------------------|
--------------------------------------------------|
--5-5-5-5-5-5-7-7-7-7-7-7-8-8-8-8-8-8-------------|
--------------------------------------9-9-9-9-9-9-|



--------------------------------------------------|
--------------------------------------------------|
--------------------------------------------------|
--------------------------------------------------|
--------------------------------------------------|
--------------------------------------7-7-7-7-7-7-|
--8-8-8-8-8-8-6-6-6-6-6-6-8-8-8-8-8-8-------------|



-------------------------------------------|--------------------------|
-------------------------------------------|--------------------------|
-------------------------------------------|--------------------------|
-------------------------------------------|--------------------------|
--------------------------------------9----|--7----6------------------|
-------------------------------------------|------------6h-7h-6-------|
--8-8-8-8-8-8-7-7-7-7-7-7-5-5-5-5-5-5------|---------------------7----|



------------------------------|-------------------------------------|
------------------------------|-------------------------------------|
------------------------------|-------------------------------------|
------------------------------|-------------------------------------|
------------------------------|-------------------------------------|
--6h-7h-6-------6h-7h-6-------|--------------5~---1--1--1--0--0--0--|
-----------7-------------7----|--2--5--2--5-------1--1--1--0--0--0--|



---------------------------------|-------------------------------------|
---------------------------------|-------------------------------------|
---------------------------------|-------------------------------------|
--4----2-------------------------|-------------------------------------|
--1----3----------3--2h3h2h3h2h3-|-------------------------------------|
---------------------------------|--------------5~---1--1--1--0--0--0--|
------------2--5-----------------|--2--5--2--5-------1--1--1--0--0--0--|



---------------------------------|-------------------------------------|
---------------------------------|-------------------------------------|
---------------------------------|-------------------------------------|
--4----2-------------------------|-------------------------------------|
--1----3----------3--2h3h2h3h2h3-|-------------------------------------|
---------------------------------|--------------5~---1--1--1--0--0--0--|
------------2--5-----------------|--2--5--2--5-------1--1--1--0--0--0--|



---------------------------------|-------------------------------------|
---------------------------------|-------------------------------------|
---------------------------------|-------------------------------------|
--4----2-------------------------|-------------------------------------|
--1----3----------3--2h3h2h3h2h3-|-------------------------------------|
---------------------------------|--------------5~---1--1--1--0--0--0--|
------------2--5-----------------|--2--5--2--5-------1--1--1--0--0--0--|



---------------------------------|
---------------------------------|
---------------------------------|
--4----2-------------------------|
--1----3----------3--2h3h2h3h2h3-|
---------------------------------|
------------2--5-----------------|



--------------------------------------------------|
--------------------------------------------------|
--------------------------------------------------|
--------------------------------------------------|
--------------------------------------------------|
--5-5-5-5-5-5-7-7-7-7-7-7-8-8-8-8-8-8-------------|
--------------------------------------9-9-9-9-9-9-|



--------------------------------------------------|
--------------------------------------------------|
--------------------------------------------------|
--------------------------------------------------|
--------------------------------------------------|
--------------------------------------7-7-7-7-7-7-|
--8-8-8-8-8-8-6-6-6-6-6-6-8-8-8-8-8-8-------------|



-------------------------------------------|--------------------------|
-------------------------------------------|--------------------------|
-------------------------------------------|--------------------------|
-------------------------------------------|--------------------------|
--------------------------------------9----|--7----6------------------|
-------------------------------------------|------------6h-7h-6-------|
--8-8-8-8-8-8-7-7-7-7-7-7-5-5-5-5-5-5------|---------------------7----|



--------------------------------------------------|
--------------------------------------------------|
--------------------------------------------------|
--------------------------------------------------|
--------------------------------------------------|
--5-5-5-5-5-5-7-7-7-7-7-7-8-8-8-8-8-8-------------|
--------------------------------------9-9-9-9-9-9-|



--------------------------------------------------|
--------------------------------------------------|
--------------------------------------------------|
--------------------------------------------------|
--------------------------------------------------|
--------------------------------------7-7-7-7-7-7-|
--8-8-8-8-8-8-6-6-6-6-6-6-8-8-8-8-8-8-------------|



-------------------------------------------|--------------------------|
-------------------------------------------|--------------------------|
-------------------------------------------|--------------------------|
-------------------------------------------|--------------------------|
--------------------------------------9----|--7----6------------------|
-------------------------------------------|------------6h-7h-6-------|
--8-8-8-8-8-8-7-7-7-7-7-7-5-5-5-5-5-5------|---------------------7----|



------------------------------|------------------|------------------|
------------------------------|------------------|------------------|
------------------------------|------------------|------------------|
------------------------------|------------------|------------------|
------------------------------|------------------|------------------|
--6h-7h-6-------6h-7h-6-------|------------------|------------------|
-----------7-------------7----|------------------|------------------|



------------------|------------------|-------------------|------------------|
------------------|------------------|-------------------|------------------|
------------------|------------------|-------------------|------------------|
------------------|------------------|-------------------|------------------|
------------------|------------------|--5----------------|------------------|
------------------|------------------|--5----------------|------------------|
------------------|------------------|--3----------------|------------------|



------------------|-------------------|----------------------------------------|
------------------|-------------------|----------------------------------------|
------------------|-------------------|----------------------------------------|
------------------|-------------------|----------------------------------------|
------------------|-------------------|----------------------------------------|
------------------|-------------------|--5--5-5-5--5--5--5--5--5-5-5--5--5--5--|
------------------|--------------5/---|--3--3-3-3--3--3--3--3--3-3-3--3--3--3--|



----------------------------------------|
----------------------------------------|
----------------------------------------|
----------------------------------------|
----------------------------------------|
--5--5-5-5--5--5--5--5--5-5-5--5--9--6--|
--3--3-3-3--3--3--3--3--3-3-3--3--7--4--|



----------------------------------------|
----------------------------------------|
----------------------------------------|
----------------------------------------|
----------------------------------------|
--5--5-5-5--5--5--5--5--5-5-5--5--9--6--|
--3--3-3-3--3--3--3--3--3-3-3--3--7--4--|



------------------------------------------|
------------------------------------------|
------------------------------------------|
------------------------------------------|
------------------------------------------|
--5--5-5-5--5/-8--8--8/-11--11--11/-8--8--|
--3--3-3-3--3/-6--6--6/-9---9---9/--6--6--|



----------------------------------------|
----------------------------------------|
----------------------------------------|
----------------------------------------|
----------------------------------------|
--5--5-5-5--5--5--5--5--5-5-5--5--5--5--|
--3--3-3-3--3--3--3--3--3-3-3--3--3--3--|



----------------------------------------|
----------------------------------------|
----------------------------------------|
----------------------------------------|
----------------------------------------|
--5--5-5-5--5--5--5--5--5-5-5--5--9--6--|
--3--3-3-3--3--3--3--3--3-3-3--3--7--4--|



----------------------------------------|
----------------------------------------|
----------------------------------------|
----------------------------------------|
----------------------------------------|
--5--5-5-5--5--5--5--5--5-5-5--5--9--6--|
--3--3-3-3--3--3--3--3--3-3-3--3--7--4--|



------------------------------------------|----------------------------------|
------------------------------------------|----------------------------------|
------------------------------------------|----------------------------------|
------------------------------------------|----------------------------------|
------------------------------------------|-----5--4--5~---------------------|
--5--5-5-5--5/-8--8--8/-11--11--11/-8--8--|----------------6--5--4--4--5--6--|
--3--3-3-3--3/-6--6--6/-9---9---9/--6--6--|--3-------------------------------|



----------------------------------|---------------------------------------|
----------------------------------|---------------------------------------|
----------------------------------|---------------------------------------|
----------------------------------|-----------------------------8-----10--|
----------------------------------|-----5--4--5-----------8---------------|
----------------------------------|--------------6--5--6-----6-----6------|
--6--5--3--2~---0--0--2--3--5--2--|--3------------------------------------|



---------------------------------|----------------------------------|
---------------------------------|----------------------------------|
---------------------------------|----------------------------------|
------7h-8-----------------------|----------------------------------|
------------8--5-----------------|-----5--4--5~---------------------|
---------------------------------|----------------6--5--4--4--5--6--|
------------------2h-3--5--6--2--|--3-------------------------------|



----------------------------------|---------------------------------------|
----------------------------------|---------------------------------------|
----------------------------------|---------------------------------------|
----------------------------------|-----------------------------8-----10--|
----------------------------------|-----5--4--5-----------8---------------|
----------------------------------|--------------6--5--6-----6-----6------|
--6--5--3--2~---0--0--2--3--5--2--|--3------------------------------------|



---------------------------------|--------------------------------------|
---------------------------------|--------------------------------------|
---------------------------------|--------------------------3/-2-----3/-|
------7h-8-----------------------|--------4/-5-----4/-5-----6/-5-----6/-|
------------8--5-----------------|--------7/-8-----7/-8-----------------|
---------------------------------|--0--0--------0--------0--------0-----|
------------------2h-3--5--6--2--|--------------------------------------|



--------------------------------------|--------------------------------------|
--------------------------------------|--------------------------------------|
--2-----------------------------------|--------------------------3/-2-----3/-|
--5-----2/-3-----2/-3-----0/-1-----0--|--------4/-5-----4/-5-----6/-5-----6/-|
--------5/-6-----5/-6-----3/-4-----3--|--------7/-8-----7/-8-----------------|
-----0--------0--------0--------0-----|--0--0--------0--------0--------0-----|
--------------------------------------|--------------------------------------|



--------------------------------------|--------------------------------------|
--------------------------------------|--------------------------------------|
--2-----------------------------------|--------------------------3/-2-----3/-|
--5-----2/-3-----2/-3-----0/-1-----0--|--------4/-5-----4/-5-----6/-5-----6/-|
--------5/-6-----5/-6-----3/-4-----3--|--------7/-8-----7/-8-----------------|
-----0--------0--------0--------0-----|--0--0--------0--------0--------0-----|
--------------------------------------|--------------------------------------|



--------------------------------------|--------------------------------------|
--------------------------------------|--------------------------------------|
--2-----------------------------------|--------------------------3/-2-----3/-|
--5-----2/-3-----2/-3-----0/-1-----0--|--------4/-5-----4/-5-----6/-5-----6/-|
--------5/-6-----5/-6-----3/-4-----3--|--------7/-8-----7/-8-----------------|
-----0--------0--------0--------0-----|--0--0--------0--------0--------0-----|
--------------------------------------|--------------------------------------|



--------------------------------------|----------------------------------|
--------------------------------------|----------------------------------|
--2-----------------------------------|----------------------------------|
--5-----2/-3-----2/-3-----0/-1-----0--|----------------------------------|
--------5/-6-----5/-6-----3/-4-----3--|-----5--4--5~---------------------|
-----0--------0--------0--------0-----|----------------6--5--4--4--5--6--|
--------------------------------------|--3-------------------------------|



----------------------------------|---------------------------------------|
----------------------------------|---------------------------------------|
----------------------------------|---------------------------------------|
----------------------------------|-----------------------------8-----10--|
----------------------------------|-----5--4--5-----------8---------------|
----------------------------------|--------------6--5--6-----6-----6------|
--6--5--3--2~---0--0--2--3--5--2--|--3------------------------------------|



---------------------------------|----------------------------------|
---------------------------------|----------------------------------|
---------------------------------|----------------------------------|
------7h-8-----------------------|----------------------------------|
------------8--5-----------------|-----5--4--5~---------------------|
---------------------------------|----------------6--5--4--4--5--6--|
------------------2h-3--5--6--2--|--3-------------------------------|



----------------------------------|---------------------------------------|
----------------------------------|---------------------------------------|
----------------------------------|---------------------------------------|
----------------------------------|-----------------------------8-----10--|
----------------------------------|-----5--4--5-----------8---------------|
----------------------------------|--------------6--5--6-----6-----6------|
--6--5--3--2~---0--0--2--3--5--2--|--3------------------------------------|



---------------------------------|-------------------------------------|
---------------------------------|-------------------------------------|
---------------------------------|-------------------------------------|
------7h-8-----------------------|-------------------------------------|
------------8--5-----------------|-------------------------------------|
---------------------------------|--------------5~---1--1--1--0--0--0--|
------------------2h-3--5--6--2--|--2--5--2--5-------1--1--1--0--0--0--|



---------------------------------|-------------------------------------|
---------------------------------|-------------------------------------|
---------------------------------|-------------------------------------|
--4----2-------------------------|-------------------------------------|
--1----3----------3--2h3h2h3h2h3-|-------------------------------------|
---------------------------------|--------------5~---1--1--1--0--0--0--|
------------2--5-----------------|--2--5--2--5-------1--1--1--0--0--0--|



---------------------------------|-------------------------------------|
---------------------------------|-------------------------------------|
---------------------------------|-------------------------------------|
--4----2-------------------------|-------------------------------------|
--1----3----------3--2h3h2h3h2h3-|-------------------------------------|
---------------------------------|--------------5~---1--1--1--0--0--0--|
------------2--5-----------------|--2--5--2--5-------1--1--1--0--0--0--|



---------------------------------|-------------------------------------|
---------------------------------|-------------------------------------|
---------------------------------|-------------------------------------|
--4----2-------------------------|-------------------------------------|
--1----3----------3--2h3h2h3h2h3-|-------------------------------------|
---------------------------------|--------------5~---1--1--1--0--0--0--|
------------2--5-----------------|--2--5--2--5-------1--1--1--0--0--0--|



---------------------------------|
---------------------------------|
---------------------------------|
--4----2-------------------------|
--1----3----------3--2h3h2h3h2h3-|
---------------------------------|
------------2--5-----------------|



--------------------------------------------------|
--------------------------------------------------|
--------------------------------------------------|
--------------------------------------------------|
--------------------------------------------------|
--5-5-5-5-5-5-7-7-7-7-7-7-8-8-8-8-8-8-------------|
--------------------------------------9-9-9-9-9-9-|



--------------------------------------------------|
--------------------------------------------------|
--------------------------------------------------|
--------------------------------------------------|
--------------------------------------------------|
--------------------------------------7-7-7-7-7-7-|
--8-8-8-8-8-8-6-6-6-6-6-6-8-8-8-8-8-8-------------|



-------------------------------------------|--------------------------|
-------------------------------------------|--------------------------|
-------------------------------------------|--------------------------|
-------------------------------------------|--------------------------|
--------------------------------------9----|--7----6------------------|
-------------------------------------------|------------6h-7h-6-------|
--8-8-8-8-8-8-7-7-7-7-7-7-5-5-5-5-5-5------|---------------------7----|



--------------------------------------------------|
--------------------------------------------------|
--------------------------------------------------|
--------------------------------------------------|
--------------------------------------------------|
--5-5-5-5-5-5-7-7-7-7-7-7-8-8-8-8-8-8-------------|
--------------------------------------9-9-9-9-9-9-|



--------------------------------------------------|
--------------------------------------------------|
--------------------------------------------------|
--------------------------------------------------|
--------------------------------------------------|
--------------------------------------7-7-7-7-7-7-|
--8-8-8-8-8-8-6-6-6-6-6-6-8-8-8-8-8-8-------------|



-------------------------------------------|--------------------------|
-------------------------------------------|--------------------------|
-------------------------------------------|--------------------------|
-------------------------------------------|--------------------------|
--------------------------------------9----|--7----6------------------|
-------------------------------------------|------------6h-7h-6-------|
--8-8-8-8-8-8-7-7-7-7-7-7-5-5-5-5-5-5------|---------------------7----|



------------------------------|------------------|--------------------------|
------------------------------|------------------|--------------------------|
------------------------------|------------------|--------------------------|
------------------------------|------------------|--------------------------|
------------------------------|------------------|--------------------------|
--6h-7h-6-------6h-7h-6-------|------------------|--------------------5--4--|
-----------7-------------7----|------------------|--3--3--3--3--3--3--5--3--|



--------------------------|--------------------------|
--------------------------|--------------------------|
--------------------------|--------------------------|
--------------------------|--------------------------|
--------------------------|--------------------------|
--------------------5--4--|--------------------5--4--|
--3--3--3--3--3--3--5--3--|--3--3--3--3--3--3--5--3--|



--------------------------|
--------------------------|
--------------------------|
--------------------------|
--------------------------|
--------------------5--4--|
--3--3--3--3--3--3--5--3--|



------------------------------------------------------------------|
------------------------------------------------------------------|
------------------------------------------------------------------|
--4-4-4-4-----------------5-5-5-5---------------------------------|
----------2-2-2-2-3-3-3-3-----------------8-8-8-8-7-7-7-7-5-5-5-5-|
----------------------------------6-6-6-6-------------------------|
------------------------------------------------------------------|



-------------------------------------------------------------|
-------------------------------------------------------------|
-------------------------------------------------------------|
----------------------------------------------------------3--|
--1-1-1-1-3-3-3-3-4-4-4-4-1-1-1-1----------------------------|
----------------------------------3-3-3-3-5-5-5-5-6-6-6-6----|
-------------------------------------------------------------|



------------------------------------------------------------------|
------------------------------------------------------------------|
------------------------------------------------------------------|
--4-4-4-4-----------------5-5-5-5---------------------------------|
----------2-2-2-2-3-3-3-3-----------------8-8-8-8-7-7-7-7-5-5-5-5-|
----------------------------------6-6-6-6-------------------------|
------------------------------------------------------------------|



-------------------------------------------------------------|
-------------------------------------------------------------|
-------------------------------------------------------------|
----------------------------------------------------------3--|
--1-1-1-1-3-3-3-3-4-4-4-4-1-1-1-1----------------------------|
----------------------------------3-3-3-3-5-5-5-5-6-6-6-6----|
-------------------------------------------------------------|



-----------------------|----------------------|-----------------------|
-----------------------|----------------------|-----------------------|
--1-----------1--2--1--|-------------1--2--1--|--1-----------1--2--1--|
-----------3-----------|----------3-----------|-----------3-----------|
-----------------------|----------------------|-----------------------|
-----------------------|----------------------|-----------------------|
-----------------------|----------------------|-----------------------|



----------------------|
----------------------|
-------------1--2--1--|
----------3-----------|
----------------------|
----------------------|
----------------------|



------------------------------------------------------------------|
------------------------------------------------------------------|
------------------------------------------------------------------|
--4-4-4-4-----------------5-5-5-5---------------------------------|
----------2-2-2-2-3-3-3-3-----------------8-8-8-8-7-7-7-7-5-5-5-5-|
----------------------------------6-6-6-6-------------------------|
------------------------------------------------------------------|



-------------------------------------------------------------|
-------------------------------------------------------------|
-------------------------------------------------------------|
----------------------------------------------------------3--|
--1-1-1-1-3-3-3-3-4-4-4-4-1-1-1-1----------------------------|
----------------------------------3-3-3-3-5-5-5-5-6-6-6-6----|
-------------------------------------------------------------|



------------------------------------------------------------------|
------------------------------------------------------------------|
------------------------------------------------------------------|
--4-4-4-4-----------------5-5-5-5---------------------------------|
----------2-2-2-2-3-3-3-3-----------------8-8-8-8-7-7-7-7-5-5-5-5-|
----------------------------------6-6-6-6-------------------------|
------------------------------------------------------------------|



-------------------------------------------------------------|
-------------------------------------------------------------|
-------------------------------------------------------------|
----------------------------------------------------------3--|
--1-1-1-1-3-3-3-3-4-4-4-4-1-1-1-1----------------------------|
----------------------------------3-3-3-3-5-5-5-5-6-6-6-6----|
-------------------------------------------------------------|



------------------|--------------------------------------|
------------------|--------------------------------------|
------------------|--------------------------3/-2-----3/-|
------------------|--------4/-5-----4/-5-----6/-5-----6/-|
------------------|--------7/-8-----7/-8-----------------|
------------------|--0--0--------0--------0--------0-----|
------------------|--------------------------------------|



--------------------------------------|--------------------------------------|
--------------------------------------|--------------------------------------|
--2-----------------------------------|--------------------------3/-2-----3/-|
--5-----2/-3-----2/-3-----0/-1-----0--|--------4/-5-----4/-5-----6/-5-----6/-|
--------5/-6-----5/-6-----3/-4-----3--|--------7/-8-----7/-8-----------------|
-----0--------0--------0--------0-----|--0--0--------0--------0--------0-----|
--------------------------------------|--------------------------------------|



--------------------------------------|--------------------------------------|
--------------------------------------|--------------------------------------|
--2-----------------------------------|--------------------------3/-2-----3/-|
--5-----2/-3-----2/-3-----0/-1-----0--|--------4/-5-----4/-5-----6/-5-----6/-|
--------5/-6-----5/-6-----3/-4-----3--|--------7/-8-----7/-8-----------------|
-----0--------0--------0--------0-----|--0--0--------0--------0--------0-----|
--------------------------------------|--------------------------------------|



--------------------------------------|--------------------------------------|
--------------------------------------|--------------------------------------|
--2-----------------------------------|--------------------------3/-2-----3/-|
--5-----2/-3-----2/-3-----0/-1-----0--|--------4/-5-----4/-5-----6/-5-----6/-|
--------5/-6-----5/-6-----3/-4-----3--|--------7/-8-----7/-8-----------------|
-----0--------0--------0--------0-----|--0--0--------0--------0--------0-----|
--------------------------------------|--------------------------------------|



-----------------------------|
-----------------------------|
--2--------------------------|
--5-----2/-3-----0--7--------|
--------5/-6-----3-----------|
-----0--------0--------------|
-----------------------------|



--------------------------------------------------|
--------------------------------------------------|
--------------------------------------------------|
--------------------------------------------------|
--------------------------------------------------|
--5-5-5-5-5-5-7-7-7-7-7-7-8-8-8-8-8-8-------------|
--------------------------------------9-9-9-9-9-9-|



--------------------------------------------------|
--------------------------------------------------|
--------------------------------------------------|
--------------------------------------------------|
--------------------------------------------------|
--------------------------------------7-7-7-7-7-7-|
--8-8-8-8-8-8-6-6-6-6-6-6-8-8-8-8-8-8-------------|



-------------------------------------------|--------------------------|
-------------------------------------------|--------------------------|
-------------------------------------------|--------------------------|
-------------------------------------------|--------------------------|
--------------------------------------9----|--7----6------------------|
-------------------------------------------|------------6h-7h-6-------|
--8-8-8-8-8-8-7-7-7-7-7-7-5-5-5-5-5-5------|---------------------7----|



--------------------------------------------------|
--------------------------------------------------|
--------------------------------------------------|
--------------------------------------------------|
--------------------------------------------------|
--5-5-5-5-5-5-7-7-7-7-7-7-8-8-8-8-8-8-------------|
--------------------------------------9-9-9-9-9-9-|



--------------------------------------------------|
--------------------------------------------------|
--------------------------------------------------|
--------------------------------------------------|
--------------------------------------------------|
--------------------------------------7-7-7-7-7-7-|
--8-8-8-8-8-8-6-6-6-6-6-6-8-8-8-8-8-8-------------|



-------------------------------------------|--------------------------|
-------------------------------------------|--------------------------|
-------------------------------------------|--------------------------|
-------------------------------------------|--------------------------|
--------------------------------------9----|--7----6------------------|
-------------------------------------------|------------6h-7h-6-------|
--8-8-8-8-8-8-7-7-7-7-7-7-5-5-5-5-5-5------|---------------------7----|



------------------------------||
------------------------------||
------------------------------||
------------------------------||
------------------------------||
--6h-7h-6-------6h-7h-6-------||
-----------7-------------7----||


Samoth




E||------|--------------------------|---------------------------------|
B||------|---------------4-----5----|------------------3--2h3h2h3h2h3-|
G||------|--6----5----------4-------|--6----5----1--2-----------------|
D||------|------------6-------------|---------------------------------|
A||------|--------------------------|---------------------------------|
E||------|--------------------------|---------------------------------|
B||------|--------------------------|---------------------------------|



--------------------------|---------------------------------|
---------------4-----5----|------------------3--2h3h2h3h2h3-|
--6----5----------4-------|--6----5----1--2-----------------|
------------6-------------|---------------------------------|
--------------------------|---------------------------------|
--------------------------|---------------------------------|
--------------------------|---------------------------------|



--------------------------|---------------------------------|
---------------4-----5----|------------------3--2h3h2h3h2h3-|
--6----5----------4-------|--6----5----1--2-----------------|
------------6-------------|---------------------------------|
--------------------------|---------------------------------|
--------------------------|---------------------------------|
--------------------------|---------------------------------|



--------------------------|---------------------------------|
---------------4-----5----|------------------3--2h3h2h3h2h3-|
--6----5----------4-------|--6----5----1--2-----------------|
------------6-------------|---------------------------------|
--------------------------|---------------------------------|
--------------------------|---------------------------------|
--------------------------|---------------------------------|



----------------------|----------------------|----------------------|
--3----3----3----3----|--3----3----3----3----|--2----2----0----0----|
--5----5----5----5----|--4----4----4----4----|--4----4----2----2----|
----------------------|----------------------|----------------------|
----------------------|----------------------|----------------------|
----------------------|----------------------|----------------------|
----------------------|----------------------|----------------------|



----------------------------------|----------------------|
-----------7h-8h-7----------------|--3----3----3----3----|
--4--4--6-----------6h-7h-6--5----|--5----5----5----5----|
----------------------------------|----------------------|
----------------------------------|----------------------|
----------------------------------|----------------------|
----------------------------------|----------------------|



----------------------|----------------------|
--3----3----3----3----|--2----2----0----0----|
--4----4----4----4----|--4----4----2----2----|
----------------------|----------------------|
----------------------|----------------------|
----------------------|----------------------|
----------------------|----------------------|



----------------------------------|------------------------------|
-----------7h-8h-7----------------|------------------------------|
--4--4--6-----------6h-7h-6--5----|--6h-7h-6--5----6h-7h-6--5----|
----------------------------------|------------------------------|
----------------------------------|------------------------------|
----------------------------------|------------------------------|
----------------------------------|------------------------------|



--------------------------|---------------------------------|
---------------4-----5----|------------------3--2h3h2h3h2h3-|
--6----5----------4-------|--6----5----1--2-----------------|
------------6-------------|---------------------------------|
--------------------------|---------------------------------|
--------------------------|---------------------------------|
--------------------------|---------------------------------|



--------------------------|---------------------------------|
---------------4-----5----|------------------3--2h3h2h3h2h3-|
--6----5----------4-------|--6----5----1--2-----------------|
------------6-------------|---------------------------------|
--------------------------|---------------------------------|
--------------------------|---------------------------------|
--------------------------|---------------------------------|



--------------------------|---------------------------------|
---------------4-----5----|------------------3--2h3h2h3h2h3-|
--6----5----------4-------|--6----5----1--2-----------------|
------------6-------------|---------------------------------|
--------------------------|---------------------------------|
--------------------------|---------------------------------|
--------------------------|---------------------------------|



--------------------------|---------------------------------|
---------------4-----5----|------------------3--2h3h2h3h2h3-|
--6----5----------4-------|--6----5----1--2-----------------|
------------6-------------|---------------------------------|
--------------------------|---------------------------------|
--------------------------|---------------------------------|
--------------------------|---------------------------------|



----------------------|----------------------|----------------------|
--3----3----3----3----|--3----3----3----3----|--2----2----0----0----|
--5----5----5----5----|--4----4----4----4----|--4----4----2----2----|
----------------------|----------------------|----------------------|
----------------------|----------------------|----------------------|
----------------------|----------------------|----------------------|
----------------------|----------------------|----------------------|



----------------------------------|----------------------|
-----------7h-8h-7----------------|--3----3----3----3----|
--4--4--6-----------6h-7h-6--5----|--5----5----5----5----|
----------------------------------|----------------------|
----------------------------------|----------------------|
----------------------------------|----------------------|
----------------------------------|----------------------|



----------------------|----------------------|
--3----3----3----3----|--2----2----0----0----|
--4----4----4----4----|--4----4----2----2----|
----------------------|----------------------|
----------------------|----------------------|
----------------------|----------------------|
----------------------|----------------------|



----------------------------------|------------------------------|
-----------7h-8h-7----------------|------------------------------|
--4--4--6-----------6h-7h-6--5----|--6h-7h-6--5----6h-7h-6--5----|
----------------------------------|------------------------------|
----------------------------------|------------------------------|
----------------------------------|------------------------------|
----------------------------------|------------------------------|



------------------|------------------|------------------|------------------|
------------------|------------------|------------------|------------------|
------------------|------------------|------------------|------------------|
------------------|------------------|------------------|------------------|
------------------|------------------|------------------|------------------|
------------------|------------------|------------------|------------------|
------------------|------------------|------------------|------------------|



-------------------|------------------|------------------|-------------------|
-------------------|------------------|------------------|-------------------|
-------------------|------------------|------------------|-------------------|
-------------------|------------------|------------------|-------------------|
--5----------------|------------------|------------------|-------------------|
--5----------------|------------------|------------------|-------------------|
--3----------------|------------------|------------------|--------------5/---|



----------------------------------------|
----------------------------------------|
----------------------------------------|
----------------------------------------|
----------------------------------------|
--5--5-5-5--5--5--5--5--5-5-5--5--5--5--|
--3--3-3-3--3--3--3--3--3-3-3--3--3--3--|



----------------------------------------|
----------------------------------------|
----------------------------------------|
----------------------------------------|
----------------------------------------|
--5--5-5-5--5--5--5--5--5-5-5--5--9--6--|
--3--3-3-3--3--3--3--3--3-3-3--3--7--4--|



----------------------------------------|
----------------------------------------|
----------------------------------------|
----------------------------------------|
----------------------------------------|
--5--5-5-5--5--5--5--5--5-5-5--5--9--6--|
--3--3-3-3--3--3--3--3--3-3-3--3--7--4--|



------------------------------------------|
------------------------------------------|
------------------------------------------|
------------------------------------------|
------------------------------------------|
--5--5-5-5--5/-8--8--8/-11--11--11/-8--8--|
--3--3-3-3--3/-6--6--6/-9---9---9/--6--6--|



----------------------------------------|
----------------------------------------|
----------------------------------------|
----------------------------------------|
----------------------------------------|
--5--5-5-5--5--5--5--5--5-5-5--5--5--5--|
--3--3-3-3--3--3--3--3--3-3-3--3--3--3--|



----------------------------------------|
----------------------------------------|
----------------------------------------|
----------------------------------------|
----------------------------------------|
--5--5-5-5--5--5--5--5--5-5-5--5--9--6--|
--3--3-3-3--3--3--3--3--3-3-3--3--7--4--|



----------------------------------------|
----------------------------------------|
----------------------------------------|
----------------------------------------|
----------------------------------------|
--5--5-5-5--5--5--5--5--5-5-5--5--9--6--|
--3--3-3-3--3--3--3--3--3-3-3--3--7--4--|



------------------------------------------|----------------------------------|
------------------------------------------|----------------------------------|
------------------------------------------|----------------------------------|
------------------------------------------|----------------------------------|
------------------------------------------|-----5--4--5~---------------------|
--5--5-5-5--5/-8--8--8/-11--11--11/-8--8--|----------------6--5--4--4--5--6--|
--3--3-3-3--3/-6--6--6/-9---9---9/--6--6--|--3-------------------------------|



----------------------------------|--------------------------------------|
----------------------------------|--------------------------------------|
----------------------------------|-----------------------------3-----5--|
----------------------------------|-----------------------3--------------|
----------------------------------|-----5--4--5--1--0--1-----1-----1-----|
----------------------------------|--------------------------------------|
--6--5--3--2~---0--0--2--3--5--2--|--3-----------------------------------|



---------------------------------|-----------------------------------3--|
---------------------------------|--------------------------3--5--6-----|
------2h-3-----------------------|-----------------2--3--5--------------|
------------3--0-----------------|--0--3--2--3--5-----------------------|
---------------------------------|--------------------------------------|
---------------------------------|--------------------------------------|
------------------2h-3--5--6--2--|--------------------------------------|



--5~---12h-17h-12--15h-12------------------|
---------------------------14--------------|
-------------------------------15h-12------|
---------------------------------------14--|
-------------------------------------------|
-------------------------------------------|
-------------------------------------------|



-------------------------------12/-13--15--|--17~---------------|
-----------------------10h-11--------------|--------------------|
--10----9h-10------10----------------------|--------------------|
---------------12--------------------------|--------------------|
-------------------------------------------|--------------------|
-------------------------------------------|--------------------|
-------------------------------------------|--------------------|



--------------------------------------|--------------------------------------|
--------------------------------------|--------------------------------------|
--------------------------3/-2-----3/-|--2-----------------------------------|
--------4/-5-----4/-5-----6/-5-----6/-|--5-----2/-3-----2/-3-----0/-1-----0--|
--------7/-8-----7/-8-----------------|--------5/-6-----5/-6-----3/-4-----3--|
--0--0--------0--------0--------0-----|-----0--------0--------0--------0-----|
--------------------------------------|--------------------------------------|



--------------------------------------|--------------------------------------|
--------------------------------------|--------------------------------------|
--------------------------3/-2-----3/-|--2-----------------------------------|
--------4/-5-----4/-5-----6/-5-----6/-|--5-----2/-3-----2/-3-----0/-1-----0--|
--------7/-8-----7/-8-----------------|--------5/-6-----5/-6-----3/-4-----3--|
--0--0--------0--------0--------0-----|-----0--------0--------0--------0-----|
--------------------------------------|--------------------------------------|



--------------------------------------|--------------------------------------|
--------------------------------------|--------------------------------------|
--------------------------3/-2-----3/-|--2-----------------------------------|
--------4/-5-----4/-5-----6/-5-----6/-|--5-----2/-3-----2/-3-----0/-1-----0--|
--------7/-8-----7/-8-----------------|--------5/-6-----5/-6-----3/-4-----3--|
--0--0--------0--------0--------0-----|-----0--------0--------0--------0-----|
--------------------------------------|--------------------------------------|



--------------------------------------|--------------------------------------|
--------------------------------------|--------------------------------------|
--------------------------3/-2-----3/-|--2-----------------------------------|
--------4/-5-----4/-5-----6/-5-----6/-|--5-----2/-3-----2/-3-----0/-1-----0--|
--------7/-8-----7/-8-----------------|--------5/-6-----5/-6-----3/-4-----3--|
--0--0--------0--------0--------0-----|-----0--------0--------0--------0-----|
--------------------------------------|--------------------------------------|



----------------------------------|----------------------------------|
----------------------------------|----------------------------------|
----------------------------------|----------------------------------|
----------------------------------|----------------------------------|
-----5--4--5~---------------------|----------------------------------|
----------------6--5--4--4--5--6--|----------------------------------|
--3-------------------------------|--6--5--3--2~---0--0--2--3--5--2--|



--------------------------------------|---------------------------------|
--------------------------------------|---------------------------------|
-----------------------------3-----5--|------2h-3-----------------------|
-----------------------3--------------|------------3--0-----------------|
-----5--4--5--1--0--1-----1-----1-----|---------------------------------|
--------------------------------------|---------------------------------|
--3-----------------------------------|------------------2h-3--5--6--2--|



-----------------------------------3--|
--------------------------3--5--6-----|
-----------------2--3--5--------------|
--0--3--2--3--5-----------------------|
--------------------------------------|
--------------------------------------|
--------------------------------------|



--5~---12h-17h-12--15h-12------------------|
---------------------------14--------------|
-------------------------------15h-12------|
---------------------------------------14--|
-------------------------------------------|
-------------------------------------------|
-------------------------------------------|



-------------------------------12/-13--15--|--17~---------------|
-----------------------10h-11--------------|--------------------|
--10----9h-10------10----------------------|--------------------|
---------------12--------------------------|--------------------|
-------------------------------------------|--------------------|
-------------------------------------------|--------------------|
-------------------------------------------|--------------------|



--------------------------|---------------------------------|
---------------4-----5----|------------------3--2h3h2h3h2h3-|
--6----5----------4-------|--6----5----1--2-----------------|
------------6-------------|---------------------------------|
--------------------------|---------------------------------|
--------------------------|---------------------------------|
--------------------------|---------------------------------|



--------------------------|---------------------------------|
---------------4-----5----|------------------3--2h3h2h3h2h3-|
--6----5----------4-------|--6----5----1--2-----------------|
------------6-------------|---------------------------------|
--------------------------|---------------------------------|
--------------------------|---------------------------------|
--------------------------|---------------------------------|



--------------------------|---------------------------------|
---------------4-----5----|------------------3--2h3h2h3h2h3-|
--6----5----------4-------|--6----5----1--2-----------------|
------------6-------------|---------------------------------|
--------------------------|---------------------------------|
--------------------------|---------------------------------|
--------------------------|---------------------------------|



--------------------------|---------------------------------|
---------------4-----5----|------------------3--2h3h2h3h2h3-|
--6----5----------4-------|--6----5----1--2-----------------|
------------6-------------|---------------------------------|
--------------------------|---------------------------------|
--------------------------|---------------------------------|
--------------------------|---------------------------------|



----------------------|----------------------|----------------------|
--3----3----3----3----|--3----3----3----3----|--2----2----0----0----|
--5----5----5----5----|--4----4----4----4----|--4----4----2----2----|
----------------------|----------------------|----------------------|
----------------------|----------------------|----------------------|
----------------------|----------------------|----------------------|
----------------------|----------------------|----------------------|



----------------------------------|----------------------|
-----------7h-8h-7----------------|--3----3----3----3----|
--4--4--6-----------6h-7h-6--5----|--5----5----5----5----|
----------------------------------|----------------------|
----------------------------------|----------------------|
----------------------------------|----------------------|
----------------------------------|----------------------|



----------------------|----------------------|
--3----3----3----3----|--2----2----0----0----|
--4----4----4----4----|--4----4----2----2----|
----------------------|----------------------|
----------------------|----------------------|
----------------------|----------------------|
----------------------|----------------------|



----------------------------------|------------------------------|
-----------7h-8h-7----------------|------------------------------|
--4--4--6-----------6h-7h-6--5----|--6h-7h-6--5----6h-7h-6--5----|
----------------------------------|------------------------------|
----------------------------------|------------------------------|
----------------------------------|------------------------------|
----------------------------------|------------------------------|



-----------------------|----------------------|----------------------|
-----------------------|----------------------|----------------------|
--1-----------1--2--1--|-------------1--2--1--|-------------1--2--1--|
-----------3-----------|----------3-----------|----------3-----------|
-----------------------|----------------------|----------------------|
-----------------------|----------------------|----------------------|
-----------------------|----------------------|----------------------|



----------------------|----------------------|
----------------------|----------------------|
-------------1--2--1--|-------------1--2--1--|
----------3-----------|----------3-----------|
----------------------|----------------------|
----------------------|----------------------|
----------------------|----------------------|



------------------------------------------------------------------|
------------------------------------------------------------------|
------------------------------------------------------------------|
--4-4-4-4-----------------5-5-5-5---------------------------------|
----------2-2-2-2-3-3-3-3-----------------8-8-8-8-7-7-7-7-5-5-5-5-|
----------------------------------6-6-6-6-------------------------|
------------------------------------------------------------------|



-------------------------------------------------------------|
-------------------------------------------------------------|
-------------------------------------------------------------|
----------------------------------------------------------3--|
--1-1-1-1-3-3-3-3-4-4-4-4-1-1-1-1----------------------------|
----------------------------------3-3-3-3-5-5-5-5-6-6-6-6----|
-------------------------------------------------------------|



------------------------------------------------------------------|
------------------------------------------------------------------|
------------------------------------------------------------------|
--4-4-4-4-----------------5-5-5-5---------------------------------|
----------2-2-2-2-3-3-3-3-----------------8-8-8-8-7-7-7-7-5-5-5-5-|
----------------------------------6-6-6-6-------------------------|
------------------------------------------------------------------|



-------------------------------------------------------------|
-------------------------------------------------------------|
-------------------------------------------------------------|
----------------------------------------------------------3--|
--1-1-1-1-3-3-3-3-4-4-4-4-1-1-1-1----------------------------|
----------------------------------3-3-3-3-5-5-5-5-6-6-6-6----|
-------------------------------------------------------------|



-----------------------|----------------------|-----------------------|
-----------------------|----------------------|-----------------------|
--1-----------1--2--1--|-------------1--2--1--|--1-----------1--2--1--|
-----------3-----------|----------3-----------|-----------3-----------|
-----------------------|----------------------|-----------------------|
-----------------------|----------------------|-----------------------|
-----------------------|----------------------|-----------------------|



----------------------|
----------------------|
-------------1--2--1--|
----------3-----------|
----------------------|
----------------------|
----------------------|



------------------------------------------------------------------|
------------------------------------------------------------------|
------------------------------------------------------------------|
--4-4-4-4-----------------5-5-5-5---------------------------------|
----------2-2-2-2-3-3-3-3-----------------8-8-8-8-7-7-7-7-5-5-5-5-|
----------------------------------6-6-6-6-------------------------|
------------------------------------------------------------------|



-------------------------------------------------------------|
-------------------------------------------------------------|
-------------------------------------------------------------|
----------------------------------------------------------3--|
--1-1-1-1-3-3-3-3-4-4-4-4-1-1-1-1----------------------------|
----------------------------------3-3-3-3-5-5-5-5-6-6-6-6----|
-------------------------------------------------------------|



------------------------------------------------------------------|
------------------------------------------------------------------|
------------------------------------------------------------------|
--4-4-4-4-----------------5-5-5-5---------------------------------|
----------2-2-2-2-3-3-3-3-----------------8-8-8-8-7-7-7-7-5-5-5-5-|
----------------------------------6-6-6-6-------------------------|
------------------------------------------------------------------|



-------------------------------------------------------------|
-------------------------------------------------------------|
-------------------------------------------------------------|
----------------------------------------------------------3--|
--1-1-1-1-3-3-3-3-4-4-4-4-1-1-1-1----------------------------|
----------------------------------3-3-3-3-5-5-5-5-6-6-6-6----|
-------------------------------------------------------------|



------------------|--------------------------------------|
------------------|--------------------------------------|
------------------|--------------------------3/-2-----3/-|
------------------|--------4/-5-----4/-5-----6/-5-----6/-|
------------------|--------7/-8-----7/-8-----------------|
------------------|--0--0--------0--------0--------0-----|
------------------|--------------------------------------|



--------------------------------------|--------------------------------------|
--------------------------------------|--------------------------------------|
--2-----------------------------------|--------------------------3/-2-----3/-|
--5-----2/-3-----2/-3-----0/-1-----0--|--------4/-5-----4/-5-----6/-5-----6/-|
--------5/-6-----5/-6-----3/-4-----3--|--------7/-8-----7/-8-----------------|
-----0--------0--------0--------0-----|--0--0--------0--------0--------0-----|
--------------------------------------|--------------------------------------|



--------------------------------------|--------------------------------------|
--------------------------------------|--------------------------------------|
--2-----------------------------------|--------------------------3/-2-----3/-|
--5-----2/-3-----2/-3-----0/-1-----0--|--------4/-5-----4/-5-----6/-5-----6/-|
--------5/-6-----5/-6-----3/-4-----3--|--------7/-8-----7/-8-----------------|
-----0--------0--------0--------0-----|--0--0--------0--------0--------0-----|
--------------------------------------|--------------------------------------|



--------------------------------------|--------------------------------------|
--------------------------------------|--------------------------------------|
--2-----------------------------------|--------------------------3/-2-----3/-|
--5-----2/-3-----2/-3-----0/-1-----0--|--------4/-5-----4/-5-----6/-5-----6/-|
--------5/-6-----5/-6-----3/-4-----3--|--------7/-8-----7/-8-----------------|
-----0--------0--------0--------0-----|--0--0--------0--------0--------0-----|
--------------------------------------|--------------------------------------|



-----------------------------|----------------------|----------------------|
-----------------------------|--3----3----3----3----|--3----3----3----3----|
--2--------------------------|--5----5----5----5----|--4----4----4----4----|
--5-----2/-3-----0--7--------|----------------------|----------------------|
--------5/-6-----3-----------|----------------------|----------------------|
-----0--------0--------------|----------------------|----------------------|
-----------------------------|----------------------|----------------------|



----------------------|----------------------------------|
--2----2----0----0----|-----------7h-8h-7----------------|
--4----4----2----2----|--4--4--6-----------6h-7h-6--5----|
----------------------|----------------------------------|
----------------------|----------------------------------|
----------------------|----------------------------------|
----------------------|----------------------------------|



----------------------|----------------------|----------------------|
--3----3----3----3----|--3----3----3----3----|--2----2----0----0----|
--5----5----5----5----|--4----4----4----4----|--4----4----2----2----|
----------------------|----------------------|----------------------|
----------------------|----------------------|----------------------|
----------------------|----------------------|----------------------|
----------------------|----------------------|----------------------|



----------------------------------|------------------------------||
-----------7h-8h-7----------------|------------------------------||
--4--4--6-----------6h-7h-6--5----|--6h-7h-6--5----6h-7h-6--5----||
----------------------------------|------------------------------||
----------------------------------|------------------------------||
----------------------------------|------------------------------||
----------------------------------|------------------------------||
comments
We did not receive enough feedback on this tab! Please rate:
print report bad tab
1 2 3 4 5
I want to post or [tab]
guest
You may want to rate the tab now too:
select rating
Please do not post tabs as comments. Select "correction" instead!