Oops, an error
Loading. Please wait.

I Am The Black Wizards Bass Tab

ver1
ver1

Whole song

Interactive

More versions @911Tabs.com
1,880 views 9 this week
no commentswrite comment
1 2 3 4 5
accurate
x 1
Autoscroll
+/-
esc
set tempo
stop
Contributor
Difficulty
intermediate
Hey! There's an official Ultimate Guitar app which is ideal
for learning songs when you're away from computer. Get the app
WARNING: You are trying to view
                                    content from Ultimate-Guitar.com
                                    in an unauthorized application,
                                    which is prohibited.

                                    Please use an official Ultimate
                                    Guitar Tabs application for iPhone,
                                    iPad or Android to access legitimate
                                    chords, guitar, bass, and drum tabs
                                    from Ultimate-Guitar.com database.

                                    Type "ultimate guitar tabs" in Apple
                                    App Store's or Android Market's
                                    search to find the application.
I Am The Black Wizards
Emperor


     S S S S S S S S S S S S S S S S    S S S S S S S S S S S S S S S S  
G||----------------------------------|----------------------------------|
D||----------------------------------|----------------------------------|
A||----------------------------------|----------------------------------|
E||--0-0-0-0-0-0-0-0-0-0-0-0-0-0-0-0-|--0-0-0-0-0-0-0-0-0-0-0-0-0-0-0-0-|


  S S S S S S S S S S S S S S S S    S S S S S S S S Q    Q     
----------------------------------|----------------------------|
----------------------------------|-----------------------3----|
----------------------------------|------------------3---------|
--1-1-1-1-1-1-1-1-1-1-1-1-1-1-1-1-|--1-1-1-1-1-1-1-1-----------|


  S S S S S S S S S S S S S S S S    S S S S S S S S S S S S S S S S  
----------------------------------|----------------------------------|
----------------------------------|----------------------------------|
----------------------------------|----------------------------------|
--0-0-0-0-0-0-0-0-0-0-0-0-0-0-0-0-|--0-0-0-0-0-0-0-0-0-0-0-0-0-0-0-0-|


  S S S S S S S S S S S S S S S S    S S S S S S S S Q    Q     
----------------------------------|----------------------------|
----------------------------------|-----------------------3----|
----------------------------------|------------------3---------|
--1-1-1-1-1-1-1-1-1-1-1-1-1-1-1-1-|--1-1-1-1-1-1-1-1-----------|


  S S S S S S S S S S S S S S S S    S S S S S S S S S S S S S S S S  
----------------------------------|----------------------------------|
----------------------------------|----------------------------------|
----------------------------------|----------------------------------|
--0-0-0-0-0-0-0-0-0-0-0-0-0-0-0-0-|--0-0-0-0-0-0-0-0-0-0-0-0-0-0-0-0-|


  S S S S S S S S S S S S S S S S    S S S S S S S S Q    Q     
----------------------------------|----------------------------|
----------------------------------|-----------------------3----|
----------------------------------|------------------3---------|
--1-1-1-1-1-1-1-1-1-1-1-1-1-1-1-1-|--1-1-1-1-1-1-1-1-----------|


  S S S S S S S S S S S S S S S S    S S S S S S S S S S S S S S S S  
----------------------------------|----------------------------------|
----------------------------------|----------------------------------|
----------------------------------|----------------------------------|
--0-0-0-0-0-0-0-0-0-0-0-0-0-0-0-0-|--0-0-0-0-0-0-0-0-0-0-0-0-0-0-0-0-|


  S S S S S S S S S S S S S S S S    S S S S S S S S Q    Q     
----------------------------------|----------------------------|
----------------------------------|-----------------------3----|
----------------------------------|------------------3---------|
--1-1-1-1-1-1-1-1-1-1-1-1-1-1-1-1-|--1-1-1-1-1-1-1-1-----------|


  W                   W                   W                   W                 
-------------------|-------------------|-------------------|-------------------|
-------------------|-------------------|-------------------|-------------------|
--3----------------|--L----------------|--L----------------|--L----------------|
-------------------|-------------------|-------------------|-------------------|


  E  H        Q.        E  H        Q    E     E  H        Q.      
---------------------|----------------------|---------------------|
---------------------|----------------------|---------------------|
---------------------|----------------------|---------------------|
--0------------------|--0----------------0--|--0------------------|


  W                   E  H        Q.        E  H        Q    E   
-------------------|---------------------|----------------------|
-------------------|---------------------|----------------------|
-------------------|---------------------|----------------------|
-------------------|--0------------------|--0----------------0--|


  E  H        Q.        W                   S S S S S S S S S S S S S S S S  
---------------------|-------------------|----------------------------------|
---------------------|-------------------|----------------------------------|
---------------------|-------------------|----------------------------------|
--0------------------|-------------------|--0-0-0-0-0-0-0-0-0-0-0-0-0-0-0-0-|


  S S S S S S S S S S S S S S S S    S S S S S S S S S S S S S S S S  
----------------------------------|----------------------------------|
----------------------------------|----------------------------------|
----------------------------------|----------------------------------|
--0-0-0-0-0-0-0-0-0-0-0-0-0-0-0-0-|--0-0-0-0-0-0-0-0-0-0-0-0-0-0-0-0-|


  S S S S S S S S S S S S S S S S    S S S S S S S S S S S S S S S S  
----------------------------------|----------------------------------|
--3-3-3-3-----------------4-4-4-4-|----------------------------------|
------------------3-3-3-3---------|----------------------------------|
----------2-2-2-2-----------------|--0-0-0-0-0-0-0-0-0-0-0-0-0-0-0-0-|


  S S S S S S S S S S S S S S S S    S S S S S S S S S S S S S S S S  
----------------------------------|----------------------------------|
----------------------------------|----------------------------------|
----------------------------------|----------------------------------|
--0-0-0-0-0-0-0-0-0-0-0-0-0-0-0-0-|--0-0-0-0-0-0-0-0-0-0-0-0-0-0-0-0-|


  S S S S S S S S S S S S S S S S    S S S S S S S S S S S S S S S S  
----------------------------------|----------------------------------|
--3-3-3-3-----------------4-4-4-4-|----------------------------------|
------------------3-3-3-3---------|----------------------------------|
----------2-2-2-2-----------------|--0-0-0-0-0-0-0-0-0-0-0-0-0-0-0-0-|


  S S S S S S S S S S S S S S S S    S S S S S S S S S S S S S S S S  
----------------------------------|----------------------------------|
----------------------------------|----------------------------------|
----------------------------------|----------------------------------|
--0-0-0-0-0-0-0-0-0-0-0-0-0-0-0-0-|--1-1-1-1-1-1-1-1-1-1-1-1-1-1-1-1-|


  S S S S S S S S Q    Q       S S S S S S S S S S S S S S S S  
----------------------------|----------------------------------|
-----------------------3----|----------------------------------|
------------------3---------|----------------------------------|
--1-1-1-1-1-1-1-1-----------|--0-0-0-0-0-0-0-0-0-0-0-0-0-0-0-0-|


  S S S S S S S S S S S S S S S S    S S S S S S S S S S S S S S S S  
----------------------------------|----------------------------------|
----------------------------------|----------------------------------|
----------------------------------|----------------------------------|
--0-0-0-0-0-0-0-0-0-0-0-0-0-0-0-0-|--1-1-1-1-1-1-1-1-1-1-1-1-1-1-1-1-|


  S S S S S S S S Q    Q       S S S S S S S S S S S S S S S S  
----------------------------|----------------------------------|
-----------------------3----|----------------------------------|
------------------3---------|----------------------------------|
--1-1-1-1-1-1-1-1-----------|--0-0-0-0-0-0-0-0-0-0-0-0-0-0-0-0-|


  S S S S S S S S S S S S S S S S    S S S S S S S S S S S S S S S S  
----------------------------------|----------------------------------|
----------------------------------|----------------------------------|
----------------------------------|----------------------------------|
--0-0-0-0-0-0-0-0-0-0-0-0-0-0-0-0-|--1-1-1-1-1-1-1-1-1-1-1-1-1-1-1-1-|


  S S S S S S S S Q    Q       S S S S S S S S S S S S S S S S  
----------------------------|----------------------------------|
-----------------------3----|----------------------------------|
------------------3---------|----------------------------------|
--1-1-1-1-1-1-1-1-----------|--0-0-0-0-0-0-0-0-0-0-0-0-0-0-0-0-|


  S S S S S S S S S S S S S S S S    S S S S S S S S S S S S S S S S  
----------------------------------|----------------------------------|
----------------------------------|----------------------------------|
----------------------------------|----------------------------------|
--0-0-0-0-0-0-0-0-0-0-0-0-0-0-0-0-|--1-1-1-1-1-1-1-1-1-1-1-1-1-1-1-1-|


  S S S S S S S S Q    Q       S S S S S S S S S S S S S S S S  
----------------------------|----------------------------------|
-----------------------3----|----------------------------------|
------------------3---------|--2-2-2-2-2-2-2-2-2-2-2-2-2-2-2-2-|
--1-1-1-1-1-1-1-1-----------|----------------------------------|


  S S S S S S S S S S S S S S S S    S S S S S S S S S S S S S S S S  
----------------------------------|----------------------------------|
----------------------------------|----------------------------------|
--1-1-1-1-1-1-1-1-1-1-1-1-1-1-1-1-|--2-2-2-2-2-2-2-2-2-2-2-2-2-2-2-2-|
----------------------------------|----------------------------------|


  S S S S S S S S S S S S S S S S    S S S S S S S S S S S S S S S S  
----------------------------------|----------------------------------|
--3-3-3-3-----------------4-4-4-4-|----------------------------------|
------------------3-3-3-3---------|--2-2-2-2-2-2-2-2-2-2-2-2-2-2-2-2-|
----------2-2-2-2-----------------|----------------------------------|


  S S S S S S S S S S S S S S S S    S S S S S S S S S S S S S S S S  
----------------------------------|----------------------------------|
----------------------------------|----------------------------------|
--1-1-1-1-1-1-1-1-1-1-1-1-1-1-1-1-|--2-2-2-2-2-2-2-2-2-2-2-2-2-2-2-2-|
----------------------------------|----------------------------------|


  S S S S S S S S S S S S S S S S    S S S S S S S S S S S S S S S S  
----------------------------------|----------------------------------|
--3-3-3-3-----------------4-4-4-4-|----------------------------------|
------------------3-3-3-3---------|--2-2-2-2-2-2-2-2-2-2-2-2-2-2-2-2-|
----------2-2-2-2-----------------|----------------------------------|


  S S S S S S S S S S S S S S S S    S S S S S S S S S S S S S S S S  
----------------------------------|----------------------------------|
----------------------------------|----------------------------------|
--1-1-1-1-1-1-1-1-1-1-1-1-1-1-1-1-|--2-2-2-2-2-2-2-2-2-2-2-2-2-2-2-2-|
----------------------------------|----------------------------------|


  S S S S S S S S S S S S S S S S    S S S S S S S S S S S S S S S S  
----------------------------------|----------------------------------|
--3-3-3-3-----------------4-4-4-4-|----------------------------------|
------------------3-3-3-3---------|--2-2-2-2-2-2-2-2-2-2-2-2-2-2-2-2-|
----------2-2-2-2-----------------|----------------------------------|


  S S S S S S S S S S S S S S S S    S S S S S S S S S S S S S S S S  
----------------------------------|----------------------------------|
----------------------------------|----------------------------------|
--1-1-1-1-1-1-1-1-1-1-1-1-1-1-1-1-|--2-2-2-2-2-2-2-2-2-2-2-2-2-2-2-2-|
----------------------------------|----------------------------------|


                                              <                             
  S S S S S S S S S S S S S S S S    H        H           W                 
----------------------------------|--------------------|-------------------|
--3-3-3-3-----------------4-4-4-4-|--------------------|-------------------|
------------------3-3-3-3---------|--5--------L--------|-------------------|
----------2-2-2-2-----------------|--------------------|-------------------|


                                     |--6--|  |--6--|  |--6--|  |--6--|   
  W                                  E  E  E  E  E  E  E  E  E  E  E  E   
-------------------|----|----|----|--------------------------------------|
-------------------|----|----|----|--------------------------------------|
-------------------|----|----|----|--5--5--5--5--5--5--7--7--7--7--7--7--|
-------------------|----|----|----|--------------------------------------|


  |--6--|  |--6--|    |---6---|   |---6---|     |----6----|    |----6----|     
  E  E  E  E  E  E    E   E   E   E   E   E     Q    Q    Q    Q    Q    Q     
---------------------------------------------|--------------------------------|
---------------------------------------------|--------------------------------|
--8--8--8--8--8--8S--11--11--11--11--11--11--|--3----3----3----3----3----3----|
---------------------------------------------|--------------------------------|


  |----6----|    |----6----|       |----6----|    |----6----|     
  Q    Q    Q    Q    Q    Q       Q    Q    Q    Q    Q    Q     
--------------------------------|--------------------------------|
--------------------------------|--------------------------------|
--3----3----3----3----3----3----|--1----1----1----1----1----1----|
--------------------------------|--------------------------------|


  |----3----|                    |----6----|    |----6----|     
  Q    Q    Q     Q.      E      Q    Q    Q    Q    Q    Q     
------------------------------|--------------------------------|
------------------------------|--------------------------------|
--1----1----1S----4S------3S--|--5----5----5----5----5----5----|
------------------------------|--------------------------------|


  |----6----|    |----6----|       |--6--|  |--6--|  |--6--|  |--6--|   
  Q    Q    Q    Q    Q    Q       E  E  E  E  E  E  E  E  E  E  E  E   
--------------------------------|--------------------------------------|
--------------------------------|--------------------------------------|
--5----5----5----5----5----5----|--5--5--5--5--5--5--7--7--7--7--7--7--|
--------------------------------|--------------------------------------|


  |--6--|  |--6--|    |---6---|   |---6---|     |----6----|    |----6----|     
  E  E  E  E  E  E    E   E   E   E   E   E     Q    Q    Q    Q    Q    Q     
---------------------------------------------|--------------------------------|
---------------------------------------------|--------------------------------|
--8--8--8--8--8--8S--11--11--11--11--11--11--|--3----3----3----3----3----3----|
---------------------------------------------|--------------------------------|


  |----6----|    |----6----|       |----6----|    |----6----|     
  Q    Q    Q    Q    Q    Q       Q    Q    Q    Q    Q    Q     
--------------------------------|--------------------------------|
--------------------------------|--------------------------------|
--3----3----3----3----3----3----|--1----1----1----1----1----1----|
--------------------------------|--------------------------------|


  |----3----|                   |----6----|    |----6----|     
  Q    Q    Q     Q.      E     Q    Q    Q    Q    Q    Q     
-----------------------------|--------------------------------|
-----------------------------|--------------------------------|
--1----1----1S----4S------3--|--5----5----5----5----5----5----|
-----------------------------|--------------------------------|


  |----6----|    |----6----|       |--6--|  |--6--|  |--6--|  |--6--|   
  Q    Q    Q    Q    Q    Q       E  E  E  E  E  E  E  E  E  E  E  E   
--------------------------------|--------------------------------------|
--------------------------------|--------------------------------------|
--5----5----5----5----5----5----|--5--5--5--5--5--5--7--7--7--7--7--7--|
--------------------------------|--------------------------------------|


  |--6--|  |--6--|    |---6---|   |---6---|     |----6----|    |----6----|     
  E  E  E  E  E  E    E   E   E   E   E   E     Q    Q    Q    Q    Q    Q     
---------------------------------------------|--------------------------------|
---------------------------------------------|--------------------------------|
--8--8--8--8--8--8S--11--11--11--11--11--11--|--3----3----3----3----3----3----|
---------------------------------------------|--------------------------------|


  |----6----|    |----6----|       |----6----|    |----6----|     
  Q    Q    Q    Q    Q    Q       Q    Q    Q    Q    Q    Q     
--------------------------------|--------------------------------|
--------------------------------|--------------------------------|
--3----3----3----3----3----3----|--1----1----1----1----1----1----|
--------------------------------|--------------------------------|


  |----3----|                    |----6----|    |----6----|     
  Q    Q    Q     Q.      E      Q    Q    Q    Q    Q    Q     
------------------------------|--------------------------------|
------------------------------|--------------------------------|
--1----1----1S----4S------3S--|--5----5----5----5----5----5----|
------------------------------|--------------------------------|


  |----6----|    |----6----|       |--6--|  |--6--|  |--6--|  |--6--|   
  Q    Q    Q    Q    Q    Q       E  E  E  E  E  E  E  E  E  E  E  E   
--------------------------------|--------------------------------------|
--------------------------------|--------------------------------------|
--5----5----5----5----5----5----|--5--5--5--5--5--5--7--7--7--7--7--7--|
--------------------------------|--------------------------------------|


  |--6--|  |--6--|    |---6---|   |---6---|     |----6----|    |----6----|     
  E  E  E  E  E  E    E   E   E   E   E   E     Q    Q    Q    Q    Q    Q     
---------------------------------------------|--------------------------------|
---------------------------------------------|--------------------------------|
--8--8--8--8--8--8S--11--11--11--11--11--11--|--3----3----3----3----3----3----|
---------------------------------------------|--------------------------------|


  |----6----|    |----6----|       |----6----|    |----6----|     
  Q    Q    Q    Q    Q    Q       Q    Q    Q    Q    Q    Q     
--------------------------------|--------------------------------|
--------------------------------|--------------------------------|
--3----3----3----3----3----3----|--1----1----1----1----1----1----|
--------------------------------|--------------------------------|


  |----3----|                    |----6----|    |----6----|     
  Q    Q    Q     Q.      E      Q    Q    Q    Q    Q    Q     
------------------------------|--------------------------------|
------------------------------|--------------------------------|
--1----1----1S----4S------3S--|--5----5----5----5----5----5----|
------------------------------|--------------------------------|


  |----6----|    |----6----|       |--6--|  |--6--|  |--6--|  |--6--|   
  Q    Q    Q    Q    Q    Q       E  E  E  E  E  E  E  E  E  E  E  E   
--------------------------------|--------------------------------------|
--------------------------------|--------------------------------------|
--5----5----5----5----5----5----|--5--5--5--5--5--5--7--7--7--7--7--7--|
--------------------------------|--------------------------------------|


  |--6--|  |--6--|    |---6---|   |---6---|     |----6----|    |----6----|     
  E  E  E  E  E  E    E   E   E   E   E   E     Q    Q    Q    Q    Q    Q     
---------------------------------------------|--------------------------------|
---------------------------------------------|--------------------------------|
--8--8--8--8--8--8S--11--11--11--11--11--11--|--3----3----3----3----3----3----|
---------------------------------------------|--------------------------------|


  |----6----|    |----6----|       |----6----|    |----6----|     
  Q    Q    Q    Q    Q    Q       Q    Q    Q    Q    Q    Q     
--------------------------------|--------------------------------|
--------------------------------|--------------------------------|
--3----3----3----3----3----3----|--1----1----1----1----1----1----|
--------------------------------|--------------------------------|


  |----3----|                    |----6----|    |----6----|     
  Q    Q    Q     Q.      E      Q    Q    Q    Q    Q    Q     
------------------------------|--------------------------------|
------------------------------|--------------------------------|
--1----1----1S----4S------3S--|--5----5----5----5----5----5----|
------------------------------|--------------------------------|


  |----6----|    |----6----|       |--6--|  |--6--|  |--6--|  |--6--|   
  Q    Q    Q    Q    Q    Q       E  E  E  E  E  E  E  E  E  E  E  E   
--------------------------------|--------------------------------------|
--------------------------------|--------------------------------------|
--5----5----5----5----5----5----|--5--5--5--5--5--5--7--7--7--7--7--7--|
--------------------------------|--------------------------------------|


  |--6--|  |--6--|    |---6---|   |---6---|                                   
  E  E  E  E  E  E    E   E   E   E   E   E     E  S S S S E  S S S S E  S S  
---------------------------------------------|-------------------------------|
---------------------------------------------|-------------------------------|
--8--8--8--8--8--8S--11--11--11--11--11--11--|--5--5-5-5-5-5--5-5-5-5-5--5-5-|
---------------------------------------------|-------------------------------|


  S S E  S S S S E  S S S S E     E  E  Q.     Q.      
-------------------------------|----------------------|
-------------------------------|----------------------|
--5-5-5--5-5-5-5---------------|---------------6------|
-----------------3--3-3-3-3-3--|--1--3--4-------------|


  E  S S S S E  S S S S E  S S    S S E  S S S S S S S S S S  S S  
-------------------------------|----------------------------------|
-------------------------------|----------------------------------|
--5--5-5-5-5-5--5-5-5-5-5--5-5-|--5-5-5--5-5-5-5------------------|
-------------------------------|-----------------3-3-3-3-3-3S-6-6-|


  S S S S S S S S S S  S S S S S S    E  S S S S E  S S S S E  S S  
-----------------------------------|-------------------------------|
-----------------------------------|-------------------------------|
-----------------------------------|--5--5-5-5-5-5--5-5-5-5-5--5-5-|
--6-6-6-6-1-1-1-1-1-1S-4-4-4-4-4-4-|-------------------------------|


  S S E  S S S S E  S S S S E     E  E  Q.     Q.      
-------------------------------|----------------------|
-------------------------------|----------------------|
--5-5-5--5-5-5-5---------------|---------------6------|
-----------------3--3-3-3-3-3--|--1--3--4-------------|


  E  S S S S E  S S S S E  S S    S S E  S S S S S S S S S S  S S  
-------------------------------|----------------------------------|
-------------------------------|----------------------------------|
--5--5-5-5-5-5--5-5-5-5-5--5-5-|--5-5-5--5-5-5-5------------------|
-------------------------------|-----------------3-3-3-3-3-3S-6-6-|


  S S S S S S S S S S  S S S S S S    S S S S S S S S S S S S S S S S  
-----------------------------------|----------------------------------|
-----------------------------------|----------------------------------|
-----------------------------------|----------------------------------|
--6-6-6-6-1-1-1-1-1-1S-4-4-4-4-4-4-|--5-5-5-5-5-5-5-5-5-5-5-5-5-5-5-5-|


  S S S S S S S S S S S S S S S S    S S S S S S S S S S S S S S S S  
----------------------------------|----------------------------------|
----------------------------------|----------------------------------|
----------------------------------|----------------------------------|
--5-5-5-5-5-5-5-5-7-7-7-7-7-7-7-7-|--7-7-7-7-6-6-6-6-6-6-6-6-6-6-6-6-|


  S S S S S S S S S S S S S S S S    S S S S S S S S S S S S S S  S S  
----------------------------------|-----------------------------------|
----------------------------------|-----------------------------------|
----------------------------------|------------------2-2-2-2-2-2S-5-5-|
--5-5-5-5-5-5-5-5-5-5-5-5-5-5-5-5-|--5-5-5-5-5-5-5-5------------------|


  S S S S S S S S S S  S S S S S S    S S S S S S S S S S S S S S S S  
-----------------------------------|----------------------------------|
-----------------------------------|----------------------------------|
--5-5-5-5--------------------------|----------------------------------|
----------5-5-5-5-5-5S-8-8-8-8-8-8-|--5-5-5-5-5-5-5-5-5-5-5-5-5-5-5-5-|


  S S S S S S S S S S S S S S S S    S S S S S S S S S S S S S S S S  
----------------------------------|----------------------------------|
----------------------------------|----------------------------------|
----------------------------------|----------------------------------|
--5-5-5-5-5-5-5-5-7-7-7-7-7-7-7-7-|--7-7-7-7-6-6-6-6-6-6-6-6-6-6-6-6-|


  S S S S S S S S S S S S S S S S    S S S S S S S S S S S S S S  S S  
----------------------------------|-----------------------------------|
----------------------------------|-----------------------------------|
----------------------------------|------------------2-2-2-2-2-2S-5-5-|
--5-5-5-5-5-5-5-5-5-5-5-5-5-5-5-5-|--5-5-5-5-5-5-5-5------------------|


                                      |----6----|    |----6----|     
  S S S S S S S S S S  S S S S S S    Q    Q    Q    Q    Q    Q     
-----------------------------------|--------------------------------|
-----------------------------------|--------------------------------|
--5-5-5-5--------------------------|--5----5----5----5----5----5----|
----------5-5-5-5-5-5S-8-8-8-8-8-8-|--------------------------------|


  |----6----|    |----6----|       |----6----|    |----6----|     
  Q    Q    Q    Q    Q    Q       Q    Q    Q    Q    Q    Q     
--------------------------------|--------------------------------|
--------------------------------|--------------------------------|
--5----5----5----5----5----5----|--1----1----1----1----1----1----|
--------------------------------|--------------------------------|


  |----3----|                    |----6----|    |----6----|     
  Q    Q    Q     Q.      E      Q    Q    Q    Q    Q    Q     
------------------------------|--------------------------------|
------------------------------|--------------------------------|
--1----1----1S----4S------3S--|--5----5----5----5----5----5----|
------------------------------|--------------------------------|


  |----6----|    |----6----|       |--6--|  |--6--|  |--6--|  |--6--|   
  Q    Q    Q    Q    Q    Q       E  E  E  E  E  E  E  E  E  E  E  E   
--------------------------------|--------------------------------------|
--------------------------------|--------------------------------------|
--5----5----5----5----5----5----|--5--5--5--5--5--5--7--7--7--7--7--7--|
--------------------------------|--------------------------------------|


  |--6--|  |--6--|    |---6---|   |---6---|     |----6----|    |----6----|     
  E  E  E  E  E  E    E   E   E   E   E   E     Q    Q    Q    Q    Q    Q     
---------------------------------------------|--------------------------------|
---------------------------------------------|--------------------------------|
--8--8--8--8--8--8S--11--11--11--11--11--11--|--3----3----3----3----3----3----|
---------------------------------------------|--------------------------------|


  |----6----|    |----6----|       |----6----|    |----6----|     
  Q    Q    Q    Q    Q    Q       Q    Q    Q    Q    Q    Q     
--------------------------------|--------------------------------|
--------------------------------|--------------------------------|
--3----3----3----3----3----3----|--1----1----1----1----1----1----|
--------------------------------|--------------------------------|


  |----3----|                   |----6----|    |----6----|     
  Q    Q    Q     Q.      E     Q    Q    Q    Q    Q    Q     
-----------------------------|--------------------------------|
-----------------------------|--------------------------------|
--1----1----1S----4S------3--|--5----5----5----5----5----5----|
-----------------------------|--------------------------------|


  |----6----|    |----6----|       |--6--|  |--6--|  |--6--|  |--6--|   
  Q    Q    Q    Q    Q    Q       E  E  E  E  E  E  E  E  E  E  E  E   
--------------------------------|--------------------------------------|
--------------------------------|--------------------------------------|
--5----5----5----5----5----5----|--5--5--5--5--5--5--7--7--7--7--7--7--|
--------------------------------|--------------------------------------|


  |--6--|  |--6--|    |---6---|   |---6---|     |----6----|    |----6----|     
  E  E  E  E  E  E    E   E   E   E   E   E     Q    Q    Q    Q    Q    Q     
---------------------------------------------|--------------------------------|
---------------------------------------------|--------------------------------|
--8--8--8--8--8--8S--11--11--11--11--11--11--|--3----3----3----3----3----3----|
---------------------------------------------|--------------------------------|


  |----6----|    |----6----|       |----6----|    |----6----|     
  Q    Q    Q    Q    Q    Q       Q    Q    Q    Q    Q    Q     
--------------------------------|--------------------------------|
--------------------------------|--------------------------------|
--3----3----3----3----3----3----|--1----1----1----1----1----1----|
--------------------------------|--------------------------------|


  |----3----|                    |----6----|    |----6----|     
  Q    Q    Q     Q.      E      Q    Q    Q    Q    Q    Q     
------------------------------|--------------------------------|
------------------------------|--------------------------------|
--1----1----1S----4S------3S--|--5----5----5----5----5----5----|
------------------------------|--------------------------------|


  |----6----|    |----6----|       |--6--|  |--6--|  |--6--|  |--6--|   
  Q    Q    Q    Q    Q    Q       E  E  E  E  E  E  E  E  E  E  E  E   
--------------------------------|--------------------------------------|
--------------------------------|--------------------------------------|
--5----5----5----5----5----5----|--5--5--5--5--5--5--7--7--7--7--7--7--|
--------------------------------|--------------------------------------|


  |--6--|  |--6--|    |---6---|   |---6---|     |----6----|    |----6----|     
  E  E  E  E  E  E    E   E   E   E   E   E     Q    Q    Q    Q    Q    Q     
---------------------------------------------|--------------------------------|
---------------------------------------------|--------------------------------|
--8--8--8--8--8--8S--11--11--11--11--11--11--|--3----3----3----3----3----3----|
---------------------------------------------|--------------------------------|


  |----6----|    |----6----|       |----6----|    |----6----|     
  Q    Q    Q    Q    Q    Q       Q    Q    Q    Q    Q    Q     
--------------------------------|--------------------------------|
--------------------------------|--------------------------------|
--3----3----3----3----3----3----|--1----1----1----1----1----1----|
--------------------------------|--------------------------------|


  |----3----|                    |----6----|    |----6----|     
  Q    Q    Q     Q.      E      Q    Q    Q    Q    Q    Q     
------------------------------|--------------------------------|
------------------------------|--------------------------------|
--1----1----1S----4S------3S--|--5----5----5----5----5----5----|
------------------------------|--------------------------------|


  |----6----|    |----6----|       |--6--|  |--6--|  |--6--|  |--6--|   
  Q    Q    Q    Q    Q    Q       E  E  E  E  E  E  E  E  E  E  E  E   
--------------------------------|--------------------------------------|
--------------------------------|--------------------------------------|
--5----5----5----5----5----5----|--5--5--5--5--5--5--7--7--7--7--7--7--|
--------------------------------|--------------------------------------|


  |--6--|  |--6--|    |---6---|   |---6---|     |----6----|    |----6----|     
  E  E  E  E  E  E    E   E   E   E   E   E     Q    Q    Q    Q    Q    Q     
---------------------------------------------|--------------------------------|
---------------------------------------------|--------------------------------|
--8--8--8--8--8--8S--11--11--11--11--11--11--|--3----3----3----3----3----3----|
---------------------------------------------|--------------------------------|


  |----6----|    |----6----|       |----6----|    |----6----|     
  Q    Q    Q    Q    Q    Q       Q    Q    Q    Q    Q    Q     
--------------------------------|--------------------------------|
--------------------------------|--------------------------------|
--3----3----3----3----3----3----|--1----1----1----1----1----1----|
--------------------------------|--------------------------------|


  |----3----|                    |----6----|    |----6----|     
  Q    Q    Q     Q.      E      Q    Q    Q    Q    Q    Q     
------------------------------|--------------------------------|
------------------------------|--------------------------------|
--1----1----1S----4S------3S--|--5----5----5----5----5----5----|
------------------------------|--------------------------------|


  |----6----|    |----6----|       |--6--|  |--6--|  |--6--|  |--6--|   
  Q    Q    Q    Q    Q    Q       E  E  E  E  E  E  E  E  E  E  E  E   
--------------------------------|--------------------------------------|
--------------------------------|--------------------------------------|
--5----5----5----5----5----5----|--5--5--5--5--5--5--7--7--7--7--7--7--|
--------------------------------|--------------------------------------|


  |--6--|  |--6--|    |---6---|   |---6---|                       
  E  E  E  E  E  E    E   E   E   E   E   E     W                 
---------------------------------------------|-------------------|
---------------------------------------------|-------------------|
--8--8--8--8--8--8S--11--11--11--11--11--11--|-------------------|
---------------------------------------------|-------------------|


-------------------|-------------------|-------------------|
-------------------|-------------------|-------------------|
-------------------|-------------------|-------------------|
-------------------|-------------------|-------------------|


  H        H           H        H            H        Q    Q     
--------------------|---------------------|---------------------|
--------------------|---------------------|---------------------|
-----------1--------|--0------------------|---------------------|
--0-----------------|-----------1S--------|--4--------1----0----|


  Q    Q    H           H        H           H        H          
---------------------|--------------------|---------------------|
---------------------|--------------------|---------------------|
---------------------|-----------1--------|--0------------------|
--1----0-------------|--0-----------------|-----------1S--------|


  H        Q    Q       Q    Q    H           H        H         
---------------------|---------------------|--------------------|
---------------------|---------------------|--------------------|
---------------------|---------------------|-----------1--------|
--4--------1----0----|--1----0----1--------|--0-----------------|


  H        H            H        Q    Q       Q    Q    H         
---------------------|---------------------|---------------------|
---------------------|---------------------|---------------------|
--0------------------|---------------------|---------------------|
-----------1S--------|--4--------1----0----|--1----0-------------|


  H        H           H        H            H        Q    Q     
--------------------|---------------------|---------------------|
--------------------|---------------------|---------------------|
-----------1--------|--0------------------|---------------------|
--0-----------------|-----------1S--------|--4--------1----0----|


  Q    Q    H           H        H           H        H          
---------------------|--------------------|---------------------|
---------------------|--------------------|---------------------|
---------------------|-----------1--------|--0------------------|
--1----0----1--------|--0-----------------|-----------1S--------|


  H        Q    Q       Q    Q    H           H        H         
---------------------|---------------------|--------------------|
---------------------|---------------------|--------------------|
---------------------|---------------------|-----------1--------|
--4--------1----0----|--1----0-------------|--0-----------------|


  H        H            H        Q    Q       Q    Q    H         
---------------------|---------------------|---------------------|
---------------------|---------------------|---------------------|
--0------------------|---------------------|---------------------|
-----------1S--------|--4--------1----0----|--1----0----1--------|


  H        H           H        H            H        Q    Q     
--------------------|---------------------|---------------------|
--------------------|---------------------|---------------------|
-----------1--------|--0------------------|---------------------|
--0-----------------|-----------1S--------|--4--------1----0----|


  Q    Q    H           H        H           H        H          
---------------------|--------------------|---------------------|
---------------------|--------------------|---------------------|
---------------------|-----------1--------|--0------------------|
--1----0-------------|--0-----------------|-----------1S--------|


  H        Q    Q       Q    Q    H           H        H         
---------------------|---------------------|--------------------|
---------------------|---------------------|--------------------|
---------------------|---------------------|-----------1--------|
--4--------1----0----|--1----0----1--------|--0-----------------|


  H        H            H        Q    Q       Q    Q    H         
---------------------|---------------------|---------------------|
---------------------|---------------------|---------------------|
--0------------------|---------------------|---------------------|
-----------1S--------|--4--------1----0----|--1----0-------------|


  H        H           H        H           H        H         
--------------------|--------------------|--------------------|
--------------------|--------------------|--------------------|
--------------------|--------------------|--------------------|
--0--------0--------|--0--------0--------|--0--------0--------|


  H        H           H        H           H        H         
--------------------|--------------------|--------------------|
--------------------|--------------------|--------------------|
--------------------|--------------------|--------------------|
--0--------0--------|--1--------1--------|--1--------1--------|


  H        H           H        H           H        H         
--------------------|--------------------|--------------------|
--------------------|--------------------|--------------------|
--------------------|--------------------|--------------------|
--1--------1--------|--1--------1--------|--0--------0--------|


  H        H           H        H           H        H         
--------------------|--------------------|--------------------|
--------------------|--------------------|--------------------|
--------------------|--------------------|--------------------|
--0--------0--------|--0--------0--------|--0--------0--------|


  H        H           H        H           H        H         
--------------------|--------------------|--------------------|
--------------------|--------------------|--------------------|
--------------------|--------------------|--------------------|
--1--------1--------|--1--------1--------|--1--------1--------|


  H        H           H        H           H        H         
--------------------|--------------------|--------------------|
--------------------|--------------------|--------------------|
--------------------|--------------------|--------------------|
--1--------1--------|--0--------0--------|--0--------0--------|


  H        H           H        H           H        H         
--------------------|--------------------|--------------------|
--------------------|--------------------|--------------------|
--------------------|--------------------|--------------------|
--0--------0--------|--0--------0--------|--1--------1--------|


  H        H           H        H           H        H         
--------------------|--------------------|--------------------|
--------------------|--------------------|--------------------|
--------------------|--------------------|--------------------|
--1--------1--------|--1--------1--------|--1--------1--------|


  H        H           H        H           H        H         
--------------------|--------------------|--------------------|
--------------------|--------------------|--------------------|
--------------------|--------------------|--------------------|
--0--------0--------|--0--------0--------|--0--------0--------|


  H        H           H        H           H        H         
--------------------|--------------------|--------------------|
--------------------|--------------------|--------------------|
--------------------|--------------------|--------------------|
--0--------0--------|--1--------1--------|--1--------1--------|


  H        H           H        H           H        H         
--------------------|--------------------|--------------------|
--------------------|--------------------|--------------------|
--------------------|--------------------|--------------------|
--1--------1--------|--1--------1--------|--0--------0--------|


  H        H           H        H           H        H         
--------------------|--------------------|--------------------|
--------------------|--------------------|--------------------|
--------------------|--------------------|--------------------|
--0--------0--------|--0--------0--------|--0--------0--------|


  H        H           H        H           H        H         
--------------------|--------------------|--------------------|
--------------------|--------------------|--------------------|
--------------------|--------------------|--------------------|
--1--------1--------|--1--------1--------|--1--------1--------|


  H        H           H        H           H        H         
--------------------|--------------------|--------------------|
--------------------|--------------------|--------------------|
--------------------|--------------------|--------------------|
--1--------1--------|--0--------0--------|--0--------0--------|


  H        H           H        H           H        H         
--------------------|--------------------|--------------------|
--------------------|--------------------|--------------------|
--------------------|--------------------|--------------------|
--0--------0--------|--0--------0--------|--1--------1--------|


  H        H           H        H           H        H         
--------------------|--------------------|--------------------|
--------------------|--------------------|--------------------|
--------------------|--------------------|--------------------|
--1--------1--------|--1--------1--------|--1--------1--------|


  H        H           H        H           H        H         
--------------------|--------------------|--------------------|
--------------------|--------------------|--------------------|
--------------------|--------------------|--------------------|
--0--------0--------|--0--------0--------|--0--------0--------|


  H        H           H        H           H        H         
--------------------|--------------------|--------------------|
--------------------|--------------------|--------------------|
--------------------|--------------------|--------------------|
--0--------0--------|--1--------1--------|--1--------1--------|


  H        H           H        H           H        H         
--------------------|--------------------|--------------------|
--------------------|--------------------|--------------------|
--------------------|--------------------|--------------------|
--1--------1--------|--1--------1--------|--0--------0--------|


  H        H           H        H           H        H         
--------------------|--------------------|--------------------|
--------------------|--------------------|--------------------|
--------------------|--------------------|--------------------|
--0--------0--------|--0--------0--------|--0--------0--------|


  H        H           H        H           H        H         
--------------------|--------------------|--------------------|
--------------------|--------------------|--------------------|
--------------------|--------------------|--------------------|
--1--------1--------|--1--------1--------|--1--------1--------|


  H        H           W                   W                 
--------------------|-------------------|-------------------|
--------------------|-------------------|-------------------|
--------------------|-------------------|-------------------|
--1--------1--------|--0----------------|--L----------------|


  W                   W                  
-------------------|-------------------||
-------------------|-------------------||
-------------------|-------------------||
--L----------------|--L----------------||



W - whole
H - half
Q - quarter
E - 8th
S - 16th
|-3-|  - 3-triplets
L  -  Let Ring
S  -  Slide
comments
We did not receive enough feedback on this tab! Please rate:
print report bad tab
1 2 3 4 5
I want to post or [tab]
guest
You may want to rate the tab now too:
select rating
Please do not post tabs as comments. Select "correction" instead!