Oops, an error
Loading. Please wait.

Into The Infinity Of Thoughts Tab

ver2
ver2

Whole song

Interactive

More versions @911Tabs.com
2,330 views 6 this week
2 commentsread comments
1 2 3 4 5
worth learning
x 2
Autoscroll
+/-
esc
set tempo
stop
Contributor
Hey! There's an official Ultimate Guitar app which is ideal
for learning songs when you're away from computer. Get the app
WARNING: You are trying to view
                                    content from Ultimate-Guitar.com
                                    in an unauthorized application,
                                    which is prohibited.

                                    Please use an official Ultimate
                                    Guitar Tabs application for iPhone,
                                    iPad or Android to access legitimate
                                    chords, guitar, bass, and drum tabs
                                    from Ultimate-Guitar.com database.

                                    Type "ultimate guitar tabs" in Apple
                                    App Store's or Android Market's
                                    search to find the application.
Song : Into the Inifinity of Thoughts
Album: In their Nightside Eclipse
Artist: Emperor

Mostly all 16th Notes
Play around 150-170 Tempo
Arranged to play fully through

Standard Tuning e B G D A E


I may add the Ishan Parts later on but this is Samoth's part



E||------------------0-0-0-0---------|------------------0-0-0-0---------|
B||----------------------------------|----------------------------------|
G||----------------------------------|----------------------------------|
D||----------2-2-2-2---------2-2-2-2-|----------2-2-2-2---------2-2-2-2-|
A||--0-0-0-0-------------------------|--0-0-0-0-------------------------|
E||----------------------------------|----------------------------------|


                                                                      
----------------------------------|----------------------------------|
------------------0-0-0-0---------|------------------0-0-0-0---------|
----------------------------------|----------------------------------|
----------------------------------|----------------------------------|
--0-0-0-0-2-2-2-2---------2-2-2-2-|--0-0-0-0-2-2-2-2---------2-2-2-2-|
----------------------------------|----------------------------------|


                                                                      
----------------------------------|----------------------------------|
------------------1-1-1-1---------|------------------1-1-1-1---------|
----------------------------------|----------------------------------|
----------------------------------|----------------------------------|
--0-0-0-0-3-3-3-3---------3-3-3-3-|--0-0-0-0-3-3-3-3---------3-3-3-3-|
----------------------------------|----------------------------------|


                                                                      
----------------------------------|----------------------------------|
------------------3-3-3-3---------|------------------3-3-3-3---------|
----------------------------------|----------------------------------|
----------0-0-0-0---------0-0-0-0-|----------0-0-0-0---------0-0-0-0-|
--0-0-0-0-------------------------|--0-0-0-0-------------------------|
----------------------------------|----------------------------------|


                                                                      
------------------0-0-0-0---------|------------------0-0-0-0---------|
----------------------------------|----------------------------------|
----------------------------------|----------------------------------|
----------2-2-2-2---------2-2-2-2-|----------2-2-2-2---------2-2-2-2-|
--0-0-0-0-------------------------|--0-0-0-0-------------------------|
----------------------------------|----------------------------------|


                                                                      
----------------------------------|----------------------------------|
------------------0-0-0-0---------|------------------0-0-0-0---------|
----------------------------------|----------------------------------|
----------------------------------|----------------------------------|
--0-0-0-0-2-2-2-2---------2-2-2-2-|--0-0-0-0-2-2-2-2---------2-2-2-2-|
----------------------------------|----------------------------------|


                                                                      
----------------------------------|----------------------------------|
------------------1-1-1-1---------|------------------1-1-1-1---------|
----------------------------------|----------------------------------|
----------------------------------|----------------------------------|
--0-0-0-0-3-3-3-3---------3-3-3-3-|--0-0-0-0-3-3-3-3---------3-3-3-3-|
----------------------------------|----------------------------------|


                                                                      
----------------------------------|----------------------------------|
------------------3-3-3-3---------|------------------3-3-3-3---------|
----------------------------------|----------------------------------|
----------0-0-0-0---------0-0-0-0-|----------0-0-0-0---------0-0-0-0-|
--0-0-0-0-------------------------|--0-0-0-0-------------------------|
----------------------------------|----------------------------------|


                                                                      
----------------------------------|----------------------------------|
----------------------------------|----------------------------------|
----------------------------------|----------------------------------|
----------------------------------|----------------------------------|
--0-0-0-0-0-0-0-0-0-0-0-0-0-0-0-0-|--0-0-0-0-0-0-0-0-0-0-0-0-0-0-0-0-|
--5-5-5-5-5-5-5-5-5-5-5-5-5-5-5-5-|--5-5-5-5-5-5-5-5-5-5-5-5-5-5-5-5-|


                                                                      
----------------------------------|----------------------------------|
----------------------------------|----------------------------------|
----------------------------------|----------------------------------|
----------------------------------|----------------------------------|
--0-0-0-0-0-0-0-0-0-0-0-0-0-0-0-0-|--0-0-0-0-0-0-0-0-0-0-0-0-0-0-0-0-|
--7-7-7-7-7-7-7-7-7-7-7-7-7-7-7-7-|--7-7-7-7-7-7-7-7-7-7-7-7-7-7-7-7-|


                                                                      
----------------------------------|----------------------------------|
----------------------------------|----------------------------------|
----------------------------------|----------------------------------|
----------------------------------|----------------------------------|
--0-0-0-0-0-0-0-0-0-0-0-0-0-0-0-0-|--0-0-0-0-0-0-0-0-0-0-0-0-0-0-0-0-|
--8-8-8-8-8-8-8-8-8-8-8-8-8-8-8-8-|--8-8-8-8-8-8-8-8-8-8-8-8-8-8-8-8-|


                                                                      
----------------------------------|----------------------------------|
----------------------------------|----------------------------------|
----------------------------------|----------------------------------|
--0-0-0-0-0-0-0-0-0-0-0-0-0-0-0-0-|--0-0-0-0-0-0-0-0-0-0-0-0-0-0-0-0-|
--0-0-0-0-0-0-0-0-0-0-0-0-0-0-0-0-|--0-0-0-0-0-0-0-0-0-0-0-0-0-0-0-0-|
----------------------------------|----------------------------------|


                                                                      
----------------------------------|----------------------------------|
----------------------------------|----------------------------------|
----------------------------------|----------------------------------|
----------------------------------|----------------------------------|
--0-0-0-0-0-0-0-0-0-0-0-0-0-0-0-0-|--0-0-0-0-0-0-0-0-0-0-0-0-0-0-0-0-|
--5-5-5-5-5-5-5-5-5-5-5-5-5-5-5-5-|--5-5-5-5-5-5-5-5-5-5-5-5-5-5-5-5-|


                                                                      
----------------------------------|----------------------------------|
----------------------------------|----------------------------------|
----------------------------------|----------------------------------|
----------------------------------|----------------------------------|
--0-0-0-0-0-0-0-0-0-0-0-0-0-0-0-0-|--0-0-0-0-0-0-0-0-0-0-0-0-0-0-0-0-|
--7-7-7-7-7-7-7-7-7-7-7-7-7-7-7-7-|--7-7-7-7-7-7-7-7-7-7-7-7-7-7-7-7-|


                                                                      
----------------------------------|----------------------------------|
----------------------------------|----------------------------------|
----------------------------------|----------------------------------|
----------------------------------|----------------------------------|
--0-0-0-0-0-0-0-0-0-0-0-0-0-0-0-0-|--0-0-0-0-0-0-0-0-0-0-0-0-0-0-0-0-|
--8-8-8-8-8-8-8-8-8-8-8-8-8-8-8-8-|--8-8-8-8-8-8-8-8-8-8-8-8-8-8-8-8-|


                                                                      
----------------------------------|----------------------------------|
----------------------------------|----------------------------------|
----------------------------------|----------------------------------|
--0-0-0-0-0-0-0-0-0-0-0-0-0-0-0-0-|--0-0-0-0-0-0-0-0-0-0-0-0-0-0-0-0-|
--0-0-0-0-0-0-0-0-0-0-0-0-0-0-0-0-|--0-0-0-0-0-0-0-0-0-0-0-0-0-0-0-0-|
----------------------------------|----------------------------------|


                                                                      
----------------------------------|----------------------------------|
------------------1-1-1-1---------|------------------1-1-1-1---------|
----------2-2-2-2---------2-2-2-2-|----------2-2-2-2---------2-2-2-2-|
----------------------------------|----------------------------------|
--0-0-0-0-------------------------|--0-0-0-0-------------------------|
----------------------------------|----------------------------------|


                                                                      
----------------------------------|----------------------------------|
------------------1-1-1-1---------|------------------1-1-1-1---------|
----------1-1-1-1---------1-1-1-1-|----------0-0-0-0---------0-0-0-0-|
----------------------------------|----------------------------------|
--0-0-0-0-------------------------|--0-0-0-0-------------------------|
----------------------------------|----------------------------------|


                                                                      
----------------------------------|----------------------------------|
----------------------------------|----------------------------------|
------------------5-5-5-5---------|------------------5-5-5-5---------|
----------4-4-4-4---------4-4-4-4-|----------4-4-4-4---------4-4-4-4-|
--0-0-0-0-------------------------|--0-0-0-0-------------------------|
----------------------------------|----------------------------------|


                                                                      
----------------------------------|----------------------------------|
------------------1-1-1-1---------|------------------1-1-1-1---------|
----------2-2-2-2---------2-2-2-2-|----------2-2-2-2---------2-2-2-2-|
----------------------------------|----------------------------------|
--0-0-0-0-------------------------|--0-0-0-0-------------------------|
----------------------------------|----------------------------------|


                                                                      
----------------------------------|----------------------------------|
------------------1-1-1-1---------|------------------1-1-1-1---------|
----------1-1-1-1---------1-1-1-1-|----------0-0-0-0---------0-0-0-0-|
----------------------------------|----------------------------------|
--0-0-0-0-------------------------|--0-0-0-0-------------------------|
----------------------------------|----------------------------------|


                                                                      
----------------------------------|----------------------------------|
----------------------------------|----------------------------------|
------------------5-5-5-5---------|------------------5-5-5-5---------|
----------4-4-4-4---------4-4-4-4-|----------4-4-4-4---------4-4-4-4-|
--0-0-0-0-------------------------|--0-0-0-0-------------------------|
----------------------------------|----------------------------------|


                                                                      
----------------------------------|----------------------------------|
------------------1-1-1-1---------|------------------1-1-1-1---------|
----------2-2-2-2---------2-2-2-2-|----------2-2-2-2---------2-2-2-2-|
----------------------------------|----------------------------------|
--0-0-0-0-------------------------|--0-0-0-0-------------------------|
----------------------------------|----------------------------------|


                                                                      
----------------------------------|----------------------------------|
------------------1-1-1-1---------|------------------1-1-1-1---------|
----------1-1-1-1---------1-1-1-1-|----------0-0-0-0---------0-0-0-0-|
----------------------------------|----------------------------------|
--0-0-0-0-------------------------|--0-0-0-0-------------------------|
----------------------------------|----------------------------------|


                                                                      
----------------------------------|----------------------------------|
----------------------------------|----------------------------------|
------------------5-5-5-5---------|------------------5-5-5-5---------|
----------4-4-4-4---------4-4-4-4-|----------4-4-4-4---------4-4-4-4-|
--0-0-0-0-------------------------|--0-0-0-0-------------------------|
----------------------------------|----------------------------------|


                                                                      
----------------------------------|----------------------------------|
------------------1-1-1-1---------|------------------1-1-1-1---------|
----------2-2-2-2---------2-2-2-2-|----------2-2-2-2---------2-2-2-2-|
----------------------------------|----------------------------------|
--0-0-0-0-------------------------|--0-0-0-0-------------------------|
----------------------------------|----------------------------------|


                                                                      
----------------------------------|----------------------------------|
------------------1-1-1-1---------|------------------1-1-1-1---------|
----------1-1-1-1---------1-1-1-1-|----------0-0-0-0---------0-0-0-0-|
----------------------------------|----------------------------------|
--0-0-0-0-------------------------|--0-0-0-0-------------------------|
----------------------------------|----------------------------------|


                                                                      
----------------------------------|----------------------------------|
----------------------------------|----------------------------------|
------------------5-5-5-5---------|------------------5-5-5-5---------|
----------4-4-4-4---------4-4-4-4-|----------4-4-4-4---------4-4-4-4-|
--0-0-0-0-------------------------|--0-0-0-0-------------------------|
----------------------------------|----------------------------------|


                                                                      
----------------------------------|----------------------------------|
------------------1-1-1-1---------|------------------1-1-1-1---------|
----------0-0-0-0---------0-0-0-0-|----------1-1-1-1---------1-1-1-1-|
----------------------------------|----------------------------------|
--0-0-0-0-------------------------|--0-0-0-0-------------------------|
----------------------------------|----------------------------------|


                                                                      
------------------0-0-0-0---------|------------------0-0-0-0---------|
----------------------------------|----------------------------------|
----------------------------------|----------------------------------|
----------2-2-2-2---------2-2-2-2-|----------2-2-2-2---------2-2-2-2-|
--0-0-0-0-------------------------|--0-0-0-0-------------------------|
----------------------------------|----------------------------------|


                                                                      
----------------------------------|----------------------------------|
------------------0-0-0-0---------|------------------0-0-0-0---------|
----------------------------------|----------------------------------|
----------------------------------|----------------------------------|
--0-0-0-0-2-2-2-2---------2-2-2-2-|--0-0-0-0-2-2-2-2---------2-2-2-2-|
----------------------------------|----------------------------------|


                                                                      
----------------------------------|----------------------------------|
------------------1-1-1-1---------|------------------1-1-1-1---------|
----------------------------------|----------------------------------|
----------------------------------|----------------------------------|
--0-0-0-0-3-3-3-3---------3-3-3-3-|--0-0-0-0-3-3-3-3---------3-3-3-3-|
----------------------------------|----------------------------------|


                                                                      
----------------------------------|----------------------------------|
------------------3-3-3-3---------|------------------3-3-3-3---------|
----------------------------------|----------------------------------|
----------0-0-0-0---------0-0-0-0-|----------0-0-0-0---------0-0-0-0-|
--0-0-0-0-------------------------|--0-0-0-0-------------------------|
----------------------------------|----------------------------------|


                                                                      
------------------0-0-0-0---------|------------------0-0-0-0---------|
----------------------------------|----------------------------------|
----------------------------------|----------------------------------|
----------2-2-2-2---------2-2-2-2-|----------2-2-2-2---------2-2-2-2-|
--0-0-0-0-------------------------|--0-0-0-0-------------------------|
----------------------------------|----------------------------------|


                                                                      
----------------------------------|----------------------------------|
------------------0-0-0-0---------|------------------0-0-0-0---------|
----------------------------------|----------------------------------|
----------------------------------|----------------------------------|
--0-0-0-0-2-2-2-2---------2-2-2-2-|--0-0-0-0-2-2-2-2---------2-2-2-2-|
----------------------------------|----------------------------------|


                                                                      
----------------------------------|----------------------------------|
------------------1-1-1-1---------|------------------1-1-1-1---------|
----------------------------------|----------------------------------|
----------------------------------|----------------------------------|
--0-0-0-0-3-3-3-3---------3-3-3-3-|--0-0-0-0-3-3-3-3---------3-3-3-3-|
----------------------------------|----------------------------------|


                                                                      
----------------------------------|----------------------------------|
------------------3-3-3-3---------|------------------3-3-3-3---------|
----------------------------------|----------------------------------|
----------0-0-0-0---------0-0-0-0-|----------0-0-0-0---------0-0-0-0-|
--0-0-0-0-------------------------|--0-0-0-0-------------------------|
----------------------------------|----------------------------------|


                                                                      
----------------------------------|----------------------------------|
----------------------------------|----------------------------------|
----------------------------------|----------------------------------|
----------------------------------|----------------------------------|
--0-0-0-0-0-0-0-0-0-0-0-0-0-0-0-0-|--0-0-0-0-0-0-0-0-0-0-0-0-0-0-0-0-|
--5-5-5-5-5-5-5-5-5-5-5-5-5-5-5-5-|--5-5-5-5-5-5-5-5-5-5-5-5-5-5-5-5-|


                                                                      
----------------------------------|----------------------------------|
----------------------------------|----------------------------------|
----------------------------------|----------------------------------|
----------------------------------|----------------------------------|
--0-0-0-0-0-0-0-0-0-0-0-0-0-0-0-0-|--0-0-0-0-0-0-0-0-0-0-0-0-0-0-0-0-|
--7-7-7-7-7-7-7-7-7-7-7-7-7-7-7-7-|--7-7-7-7-7-7-7-7-7-7-7-7-7-7-7-7-|


                                                                      
----------------------------------|----------------------------------|
----------------------------------|----------------------------------|
----------------------------------|----------------------------------|
----------------------------------|----------------------------------|
--0-0-0-0-0-0-0-0-0-0-0-0-0-0-0-0-|--0-0-0-0-0-0-0-0-0-0-0-0-0-0-0-0-|
--8-8-8-8-8-8-8-8-8-8-8-8-8-8-8-8-|--8-8-8-8-8-8-8-8-8-8-8-8-8-8-8-8-|


                                                                      
----------------------------------|----------------------------------|
----------------------------------|----------------------------------|
----------------------------------|----------------------------------|
--0-0-0-0-0-0-0-0-0-0-0-0-0-0-0-0-|--0-0-0-0-0-0-0-0-0-0-0-0-0-0-0-0-|
--0-0-0-0-0-0-0-0-0-0-0-0-0-0-0-0-|--0-0-0-0-0-0-0-0-0-0-0-0-0-0-0-0-|
----------------------------------|----------------------------------|


                                                                      
----------------------------------|----------------------------------|
----------------------------------|----------------------------------|
----------------------------------|----------------------------------|
----------------------------------|----------------------------------|
--0-0-0-0-0-0-0-0-0-0-0-0-0-0-0-0-|--0-0-0-0-0-0-0-0-0-0-0-0-0-0-0-0-|
--5-5-5-5-5-5-5-5-5-5-5-5-5-5-5-5-|--5-5-5-5-5-5-5-5-5-5-5-5-5-5-5-5-|


                                                                      
----------------------------------|----------------------------------|
----------------------------------|----------------------------------|
----------------------------------|----------------------------------|
----------------------------------|----------------------------------|
--0-0-0-0-0-0-0-0-0-0-0-0-0-0-0-0-|--0-0-0-0-0-0-0-0-0-0-0-0-0-0-0-0-|
--7-7-7-7-7-7-7-7-7-7-7-7-7-7-7-7-|--7-7-7-7-7-7-7-7-7-7-7-7-7-7-7-7-|


                                                                      
----------------------------------|----------------------------------|
----------------------------------|----------------------------------|
----------------------------------|----------------------------------|
----------------------------------|----------------------------------|
--0-0-0-0-0-0-0-0-0-0-0-0-0-0-0-0-|--0-0-0-0-0-0-0-0-0-0-0-0-0-0-0-0-|
--8-8-8-8-8-8-8-8-8-8-8-8-8-8-8-8-|--8-8-8-8-8-8-8-8-8-8-8-8-8-8-8-8-|


                                                                      
----------------------------------|----------------------------------|
----------------------------------|----------------------------------|
----------------------------------|----------------------------------|
--0-0-0-0-0-0-0-0-0-0-0-0-0-0-0-0-|--0-0-0-0-0-0-0-0-0-0-0-0-0-0-0-0-|
--0-0-0-0-0-0-0-0-0-0-0-0-0-0-0-0-|--0-0-0-0-0-0-0-0-0-0-0-0-0-0-0-0-|
----------------------------------|----------------------------------|


                                                                         
------------------|------------------|----------------------------------|
------------------|------------------|----------------------------------|
------------------|------------------|----------------------------------|
------------------|------------------|--------------------------4-4-----|
------------------|------------------|----------4-4---------------------|
------------------|------------------|--0-0-2-2-----2-2-0-0-2-2-----2-2-|


                                                                      
----------------------------------|----------------------------------|
----------------------------------|----------------------------------|
----------0-0---------------------|----------------------------------|
----------------------------------|--------------------------4-4-----|
----------------------------------|----------4-4---------------------|
--0-0-2-2-----2-2-0-0-0-0-3-3-3-3-|--0-0-2-2-----2-2-0-0-2-2-----2-2-|


                                                                      
----------------------------------|----------------------------------|
----------------------------------|----------------------------------|
----------0-0---------------------|----------------------------------|
----------------------------------|--------------------------4-4-----|
----------------------------------|----------4-4---------------------|
--0-0-2-2-----2-2-0-0-0-0-3-3-3-3-|--0-0-2-2-----2-2-0-0-2-2-----2-2-|


                                                                      
----------------------------------|----------------------------------|
----------------------------------|----------------------------------|
----------0-0---------------------|----------------------------------|
----------------------------------|--------------------------4-4-----|
----------------------------------|----------4-4---------------------|
--0-0-2-2-----2-2-0-0-0-0-3-3-3-3-|--0-0-2-2-----2-2-0-0-2-2-----2-2-|


                                                                      
----------------------------------|----------------------------------|
----------------------------------|----------------------------------|
----------0-0---------------------|----------------------------------|
----------------------------------|--------------------------4-4-----|
----------------------------------|----------4-4---------------------|
--0-0-2-2-----2-2-0-0-0-0-3-3-3-3-|--0-0-2-2-----2-2-0-0-2-2-----2-2-|


                                                               
----------------------------------|---------------------------|
----------------------------------|---------------------------|
----------0-0---------------------|--3-3-3-3-3-3-3-3-2--------|
----------------------------------|--1-1-1-1-1-1-1-1-0--------|
----------------------------------|---------------------------|
--0-0-2-2-----2-2-0-0-0-0-3-3-3-3-|---------------------------|


                                                        
---------------------------|---------------------------|
---------------------------|---------------------------|
--3-3-3-3-3-3-3-3-2--------|--3-3-3-3-3-3-3-3-2--------|
--1-1-1-1-1-1-1-1-0--------|--1-1-1-1-1-1-1-1-0--------|
---------------------------|---------------------------|
---------------------------|---------------------------|


                                                               
---------------------------|----------------------------------|
---------------------------|----------------------------------|
--3-3-3-3-3-3-3-3-2--------|----------------------------------|
--1-1-1-1-1-1-1-1-0--------|--------------------------4-4-----|
---------------------------|----------4-4---------------------|
---------------------------|--0-0-2-2-----2-2-0-0-2-2-----2-2-|


                                                                      
----------------------------------|----------------------------------|
----------------------------------|----------------------------------|
----------0-0---------------------|----------------------------------|
----------------------------------|--------------------------4-4-----|
----------------------------------|----------4-4---------------------|
--0-0-2-2-----2-2-0-0-0-0-3-3-3-3-|--0-0-2-2-----2-2-0-0-2-2-----2-2-|


                                                                      
----------------------------------|----------------------------------|
----------------------------------|----------------------------------|
----------0-0---------------------|----------------------------------|
----------------------------------|--------------------------4-4-----|
----------------------------------|----------4-4---------------------|
--0-0-2-2-----2-2-0-0-0-0-3-3-3-3-|--0-0-2-2-----2-2-0-0-2-2-----2-2-|


                                                                      
----------------------------------|----------------------------------|
----------------------------------|----------------------------------|
----------0-0---------------------|----------------------------------|
----------------------------------|--------------------------4-4-----|
----------------------------------|----------4-4---------------------|
--0-0-2-2-----2-2-0-0-0-0-3-3-3-3-|--0-0-2-2-----2-2-0-0-2-2-----2-2-|


                                                               
----------------------------------|---------------------------|
----------------------------------|---------------------------|
----------0-0---------------------|--3-3-3-3-3-3-3-3-2--------|
----------------------------------|--1-1-1-1-1-1-1-1-0--------|
----------------------------------|---------------------------|
--0-0-2-2-----2-2-0-0-0-0-3-3-3-3-|---------------------------|


                                                        
---------------------------|---------------------------|
---------------------------|---------------------------|
--3-3-3-3-3-3-3-3-2--------|--3-3-3-3-3-3-3-3-2--------|
--1-1-1-1-1-1-1-1-0--------|--1-1-1-1-1-1-1-1-0--------|
---------------------------|---------------------------|
---------------------------|---------------------------|


                                                               
---------------------------|----------------------------------|
---------------------------|----------------------------------|
--3-3-3-3-3-3-3-3-2--------|----------------------------------|
--1-1-1-1-1-1-1-1-0--------|--------------------------4-4-----|
---------------------------|----------4-4---------------------|
---------------------------|--0-0-2-2-----2-2-0-0-2-2-----2-2-|


                                                                      
----------------------------------|----------------------------------|
----------------------------------|----------------------------------|
----------0-0---------------------|----------------------------------|
----------------------------------|--------------------------4-4-----|
----------------------------------|----------4-4---------------------|
--0-0-2-2-----2-2-0-0-0-0-3-3-3-3-|--0-0-2-2-----2-2-0-0-2-2-----2-2-|


                                                                      
----------------------------------|----------------------------------|
----------------------------------|------------------1-1-1-1---------|
----------0-0---------------------|----------2-2-2-2---------2-2-2-2-|
----------------------------------|----------------------------------|
----------------------------------|--0-0-0-0-------------------------|
--0-0-2-2-----2-2-0-0-0-0-3-3-3-3-|----------------------------------|


                                                                      
----------------------------------|----------------------------------|
------------------1-1-1-1---------|------------------1-1-1-1---------|
----------2-2-2-2---------2-2-2-2-|----------1-1-1-1---------1-1-1-1-|
----------------------------------|----------------------------------|
--0-0-0-0-------------------------|--0-0-0-0-------------------------|
----------------------------------|----------------------------------|


                                                                      
----------------------------------|----------------------------------|
------------------1-1-1-1---------|----------------------------------|
----------0-0-0-0---------0-0-0-0-|------------------5-5-5-5---------|
----------------------------------|----------4-4-4-4---------4-4-4-4-|
--0-0-0-0-------------------------|--0-0-0-0-------------------------|
----------------------------------|----------------------------------|


                                                                      
----------------------------------|----------------------------------|
----------------------------------|------------------1-1-1-1---------|
------------------5-5-5-5---------|----------2-2-2-2---------2-2-2-2-|
----------4-4-4-4---------4-4-4-4-|----------------------------------|
--0-0-0-0-------------------------|--0-0-0-0-------------------------|
----------------------------------|----------------------------------|


                                                                      
----------------------------------|----------------------------------|
------------------1-1-1-1---------|------------------1-1-1-1---------|
----------2-2-2-2---------2-2-2-2-|----------1-1-1-1---------1-1-1-1-|
----------------------------------|----------------------------------|
--0-0-0-0-------------------------|--0-0-0-0-------------------------|
----------------------------------|----------------------------------|


                                                                      
----------------------------------|----------------------------------|
------------------1-1-1-1---------|----------------------------------|
----------0-0-0-0---------0-0-0-0-|------------------5-5-5-5---------|
----------------------------------|----------4-4-4-4---------4-4-4-4-|
--0-0-0-0-------------------------|--0-0-0-0-------------------------|
----------------------------------|----------------------------------|


                                                                      
----------------------------------|----------------------------------|
----------------------------------|------------------1-1-1-1---------|
------------------5-5-5-5---------|----------0-0-0-0---------0-0-0-0-|
----------4-4-4-4---------4-4-4-4-|----------------------------------|
--0-0-0-0-------------------------|--0-0-0-0-------------------------|
----------------------------------|----------------------------------|


                                                                      
----------------------------------|----------------------------------|
------------------1-1-1-1---------|----------------------------------|
----------1-1-1-1---------1-1-1-1-|------------------2-2-2-2-2-2-2-2-|
----------------------------------|----------------------------------|
--0-0-0-0-------------------------|--0-0-0-0-0-0-0-0-----------------|
----------------------------------|----------------------------------|


                                                                      
----------------------------------|----------------------------------|
----------------------------------|----------------------------------|
----------------------------------|------------------2-2-2-2-2-2-2-2-|
--1-1-1-1-1-1-1-1-1-1-1-1-1-1-1-1-|----------------------------------|
----------------------------------|--0-0-0-0-0-0-0-0-----------------|
----------------------------------|----------------------------------|


                                                                      
----------------------------------|----------------------------------|
----------------------------------|------------------0-0-0-0-0-0-0-0-|
----------------------------------|----------------------------------|
--1-1-1-1-1-1-1-1-1-1-1-1-1-1-1-1-|----------------------------------|
----------------------------------|--2-2-2-2-2-2-2-2-----------------|
----------------------------------|----------------------------------|


                                                                      
----------------------------------|----------------------------------|
----------------------------------|------------------0-0-0-0-0-0-0-0-|
----------------------------------|----------------------------------|
--3-3-3-3-3-3-3-3-3-3-3-3-3-3-3-1-|----------------------------------|
----------------------------------|--2-2-2-2-2-2-2-2-----------------|
----------------------------------|----------------------------------|


                                                                      
----------------------------------|----------------------------------|
----------------------------------|------------------1-1-1-1-1-1-1-1-|
----------------------------------|----------------------------------|
--3-3-3-3-3-3-3-3-3-3-3-3-3-3-3-1-|----------------------------------|
----------------------------------|--3-3-3-3-3-3-3-3-----------------|
----------------------------------|----------------------------------|


                                                                      
----------------------------------|----------------------------------|
----------------------------------|------------------1-1-1-1-1-1-1-1-|
----------------------------------|----------------------------------|
--4-4-4-4-4-4-4-4-4-4-4-4-4-4-4-4-|----------------------------------|
----------------------------------|--3-3-3-3-3-3-3-3-----------------|
----------------------------------|----------------------------------|


                                                                      
----------------------------------|----------------------------------|
----------------------------------|------------------3-3-3-3-3-3-3-3-|
----------------------------------|----------------------------------|
--4-4-4-4-4-4-4-4-4-4-4-4-4-4-4-4-|--0-0-0-0-0-0-0-0-----------------|
----------------------------------|----------------------------------|
----------------------------------|----------------------------------|


                                                                      
----------------------------------|----------------------------------|
----------------------------------|------------------3-3-3-3-3-3-3-3-|
--1-1-1-1-1-1-1-1-1-1-1-1-1-1-1-1-|----------------------------------|
----------------------------------|--0-0-0-0-0-0-0-0-----------------|
----------------------------------|----------------------------------|
----------------------------------|----------------------------------|


                                                                      
----------------------------------|----------------------------------|
----------------------------------|----------------------------------|
--1-1-1-1-1-1-1-1-1-1-1-1-1-1-1-1-|----------3-3-3-3---------3-3-3-3-|
----------------------------------|----------------------------------|
----------------------------------|----------------------------------|
----------------------------------|--0-0-0-0---------0-0-0-0---------|


                                                                    
--------------------------------|----------------------------------|
----------------2-2-2-2---------|----------------------------------|
-------------0------------------|----------3-3-3-3---------3-3-3-3-|
----------3-------------3-3-3-3-|----------------------------------|
--------------------------------|----------------------------------|
--3-3-3-3-----------------------|--0-0-0-0---------0-0-0-0---------|


                                                                    
--------------------------------|----------------------------------|
----------------2-2-2-2---------|----------------------------------|
-------------0------------------|----------3-3-3-3---------3-3-3-3-|
----------3-------------3-3-3-3-|----------------------------------|
--------------------------------|----------------------------------|
--3-3-3-3-----------------------|--0-0-0-0---------0-0-0-0---------|


                                                                    
--------------------------------|----------------------------------|
----------------2-2-2-2---------|----------------------------------|
-------------0------------------|----------3-3-3-3---------3-3-3-3-|
----------3-------------3-3-3-3-|----------------------------------|
--------------------------------|----------------------------------|
--3-3-3-3-----------------------|--0-0-0-0---------0-0-0-0---------|


                                                          
--------------------------|------------------------------|
--------------------------|--3----3--3--3--3----3--3--3--|
-------------0------------|--4----4--4--4--4----4--4--4--|
----------3----------4----|--4----4--4--4--4----4--4--4--|
--------------------------|--2----2--2--2--2----2--2--2--|
--3-3-3-3-------2---------|------------------------------|


                                                              
------------------------------|------------------------------|
--3----3--3--3--2----2--2--2--|--3----3--3--3--3----3--3--3--|
--2----2--2--2--3----3--3--3--|--4----4--4--4--4----4--4--4--|
--4----4--4--4--4----4--4--4--|--4----4--4--4--4----4--4--4--|
--5----5--5--5--4----4--4--4--|--2----2--2--2--2----2--2--2--|
------------------------------|------------------------------|


                                                              
------------------------------|------------------------------|
--3----3--3--3--2----2--2--2--|--3----3--3--3--3----3--3--3--|
--2----2--2--2--3----3--3--3--|--4----4--4--4--4----4--4--4--|
--4----4--4--4--4----4--4--4--|--4----4--4--4--2----2--2--2--|
--5----5--5--5--4----4--4--4--|--2----2--2--2--4----4--4--4--|
------------------------------|------------------------------|


                                                          
----------------0----0--0--0--|--6----6--6--6--6----4----|
--0----0--0--0--0----0--0--0--|--7----7--7--7--7---------|
--7----7--7--7----------------|--6----6--6--6--6---------|
--0----0--0--0----------------|--4----4--4--4--4---------|
--7----7--7--7--7----7--7--7--|--------------------------|
----------------7----7--7--7--|--------------------------|


                                                      
--4-6---4----6--------|------------------------------|
-------------7--------|------------------------------|
----------------------|------------------------------|
----------------------|--0----0--0--0--0----0--0--0--|
----------------------|------------------------------|
----------------------|--3----3--3--3--3----3--3--3--|


                                                                  
----------------------------------|------------------------------|
----------------------------------|------------------------------|
----------------------------------|------------------------------|
----------------0--0--0--0--0--0--|------------------------------|
--2----2--2--2--------------------|--4----4--4--4--4----4--4--4--|
--3----3--3--3--3--3--3--3--3--3--|--2----2--2--2--2----2--2--2--|


                                                                  
----------------------------------|------------------------------|
----------------------------------|------------------------------|
----------------------------------|------------------------------|
----------------------------------|--0----0--0--0--0----0--0--0--|
--4----4--4--4--4--4--4--4--4--4--|------------------------------|
--2----2--2--2--2--2--2--2--2--2--|--3----3--3--3--3----3--3--3--|


                                                                  
----------------------------------|------------------------------|
----------------------------------|------------------------------|
----------------------------------|------------------------------|
----------------0--0--0--0--0--0--|------------------------------|
--2----2--2--2--------------------|--4----4--4--4--4----4--4--4--|
--3----3--3--3--3--3--3--3--3--3--|--2----2--2--2--2----2--2--2--|


                                                                          
----------------------------------|--------------------------------------|
----------------------------------|--------------------------------------|
----------------------------------|--------------------------------------|
----------------------------------|--2--2--2--3--2--2--2--2--2--3--2--2--|
--4----4--4--4--4--4--4--4--4--4--|--0--0--0--0--0--0--0--0--0--0--0--0--|
--2----2--2--2--2--2--2--2--2--2--|--------------------------------------|


                                                                              
--------------------------------------|-------------------------------------
--------------------------------------|-------------------------------------
--------------------------------------|-------------------------------------
--2--2--2--3--2--2--2--2--2--3--2--2--|-----------2-----------------2-------
--0--0--0--0--0--0--0--0--0--0--0--0--|--6--6--6-----6--6--6--6--6-----6--6-
--------------------------------------|--4--4--4--4--4--4--4--4--4--4--4--4-


                                                                      
--------------------------------------|------------------------------|
--------------------------------------|------------------------------|
--------------------------------------|------------------------------|
-----------2-----------------2--------|--0----0--0--0--0----0--0--0--|
--6--6--6-----6--6--6--6--6-----6--6--|------------------------------|
--4--4--4--4--4--4--4--4--4--4--4--4--|--3----3--3--3--3----3--3--3--|


                                                                  
----------------------------------|------------------------------|
----------------------------------|------------------------------|
----------------------------------|------------------------------|
----------------0--0--0--0--0--0--|------------------------------|
--2----2--2--2--------------------|--4----4--4--4--4----4--4--4--|
--3----3--3--3--3--3--3--3--3--3--|--2----2--2--2--2----2--2--2--|


                                                                          
----------------------------------|--------------------------------------|
----------------------------------|--------------------------------------|
----------------------------------|--------------------------------------|
----------------------------------|--2--2--2--3--2--2--2--2--2--3--2--2--|
--4----4--4--4--4--4--4--4--4--4--|--0--0--0--0--0--0--0--0--0--0--0--0--|
--2----2--2--2--2--2--2--2--2--2--|--------------------------------------|


                                                                              
--------------------------------------|-------------------------------------
--------------------------------------|-------------------------------------
--------------------------------------|-------------------------------------
--2--2--2--3--2--2--2--2--2--3--2--2--|-----------2-----------------2-------
--0--0--0--0--0--0--0--0--0--0--0--0--|--6--6--6-----6--6--6--6--6-----6--6-
--------------------------------------|--4--4--4--4--4--4--4--4--4--4--4--4-


                                                                              
--------------------------------------|-------------------------------------
--------------------------------------|-------------------------------------
--------------------------------------|-------------------------------------
-----------2-----------------2--------|--2--2--2--3--2--2--2--2--2--3--2--2-
--6--6--6-----6--6--6--6--6-----6--6--|--0--0--0--0--0--0--0--0--0--0--0--0-
--4--4--4--4--4--4--4--4--4--4--4--4--|-------------------------------------


                                                                              
--------------------------------------|-------------------------------------
--------------------------------------|-------------------------------------
--------------------------------------|-------------------------------------
--2--2--2--3--2--2--2--2--2--3--2--2--|-----------2-----------------2-------
--0--0--0--0--0--0--0--0--0--0--0--0--|--6--6--6-----6--6--6--6--6-----6--6-
--------------------------------------|--4--4--4--4--4--4--4--4--4--4--4--4-


                                                                      
--------------------------------------|------------------------------|
--------------------------------------|------------------------------|
--------------------------------------|------------------------------|
-----------2-----------------2--------|--0----0--0--0--0----0--0--0--|
--6--6--6-----6--6--6--6--6-----6--6--|------------------------------|
--4--4--4--4--4--4--4--4--4--4--4--4--|--3----3--3--3--3----3--3--3--|


                                                                  
----------------------------------|------------------------------|
----------------------------------|------------------------------|
----------------------------------|------------------------------|
----------------0--0--0--0--0--0--|------------------------------|
--2----2--2--2--------------------|--4----4--4--4--4----4--4--4--|
--3----3--3--3--3--3--3--3--3--3--|--2----2--2--2--2----2--2--2--|


                                                                  
----------------------------------|------------------------------|
----------------------------------|------------------------------|
----------------------------------|------------------------------|
----------------------------------|--0----0--0--0--0----0--0--0--|
--4----4--4--4--4--4--4--4--4--4--|------------------------------|
--2----2--2--2--2--2--2--2--2--2--|--3----3--3--3--3----3--3--3--|


                                                                  
----------------------------------|------------------------------|
----------------------------------|------------------------------|
----------------------------------|------------------------------|
----------------0--0--0--0--0--0--|------------------------------|
--2----2--2--2--------------------|--4----4--4--4--4----4--4--4--|
--3----3--3--3--3--3--3--3--3--3--|--2----2--2--2--2----2--2--2--|


                                                                      
----------------------------------|----------------------------------|
----------------------------------|----------------------------------|
----------------------------------|----------3-3-3-3---------3-3-3-3-|
----------------------------------|----------------------------------|
--4----4--4--4--4--4--4--4--4--4--|----------------------------------|
--2----2--2--2--2--2--2--2--2--2--|--0-0-0-0---------0-0-0-0---------|


                                                                    
--------------------------------|----------------------------------|
----------------2-2-2-2---------|----------------------------------|
-------------0------------------|----------3-3-3-3---------3-3-3-3-|
----------3-------------3-3-3-3-|----------------------------------|
--------------------------------|----------------------------------|
--3-3-3-3-----------------------|--0-0-0-0---------0-0-0-0---------|


                                                                    
--------------------------------|----------------------------------|
----------------2-2-2-2---------|----------------------------------|
-------------0------------------|----------3-3-3-3---------3-3-3-3-|
----------3-------------3-3-3-3-|----------------------------------|
--------------------------------|----------------------------------|
--3-3-3-3-----------------------|--0-0-0-0---------0-0-0-0---------|


                                                                    
--------------------------------|----------------------------------|
----------------2-2-2-2---------|----------------------------------|
-------------0------------------|----------3-3-3-3---------3-3-3-3-|
----------3-------------3-3-3-3-|----------------------------------|
--------------------------------|----------------------------------|
--3-3-3-3-----------------------|--0-0-0-0---------0-0-0-0---------|


                                                          
--------------------------|------------------------------|
--------------------------|--3----3--3--3--3----3--3--3--|
-------------0------------|--4----4--4--4--4----4--4--4--|
----------3----------4----|--4----4--4--4--4----4--4--4--|
--------------------------|--2----2--2--2--2----2--2--2--|
--3-3-3-3-------2---------|------------------------------|


                                                              
------------------------------|------------------------------|
--3----3--3--3--2----2--2--2--|--3----3--3--3--3----3--3--3--|
--2----2--2--2--3----3--3--3--|--4----4--4--4--4----4--4--4--|
--4----4--4--4--4----4--4--4--|--4----4--4--4--4----4--4--4--|
--5----5--5--5--4----4--4--4--|--2----2--2--2--2----2--2--2--|
------------------------------|------------------------------|


                                                              
------------------------------|------------------------------|
--3----3--3--3--2----2--2--2--|--3----3--3--3--3----3--3--3--|
--2----2--2--2--3----3--3--3--|--4----4--4--4--4----4--4--4--|
--4----4--4--4--4----4--4--4--|--4----4--4--4--2----2--2--2--|
--5----5--5--5--4----4--4--4--|--2----2--2--2--4----4--4--4--|
------------------------------|------------------------------|


                                                          
----------------0----0--0--0--|--6----6--6--6--6----4----|
--0----0--0--0--0----0--0--0--|--7----7--7--7--7---------|
--7----7--7--7----------------|--6----6--6--6--6---------|
--0----0--0--0----------------|--4----4--4--4--4---------|
--7----7--7--7--7----7--7--7--|--------------------------|
----------------7----7--7--7--|--------------------------|


                                                      
--4-6---4----6--------|------------------------------|
-------------7--------|------------------------------|
----------------------|------------------------------|
----------------------|--0----0--0--0--0----0--0--0--|
----------------------|------------------------------|
----------------------|--3----3--3--3--3----3--3--3--|


                                                                  
----------------------------------|------------------------------|
----------------------------------|------------------------------|
----------------------------------|------------------------------|
----------------0--0--0--0--0--0--|------------------------------|
--2----2--2--2--------------------|--4----4--4--4--4----4--4--4--|
--3----3--3--3--3--3--3--3--3--3--|--2----2--2--2--2----2--2--2--|


                                                                  
----------------------------------|------------------------------|
----------------------------------|------------------------------|
----------------------------------|------------------------------|
----------------------------------|--0----0--0--0--0----0--0--0--|
--4----4--4--4--4--4--4--4--4--4--|------------------------------|
--2----2--2--2--2--2--2--2--2--2--|--3----3--3--3--3----3--3--3--|


                                                                  
----------------------------------|------------------------------|
----------------------------------|------------------------------|
----------------------------------|------------------------------|
----------------0--0--0--0--0--0--|------------------------------|
--2----2--2--2--------------------|--4----4--4--4--4----4--4--4--|
--3----3--3--3--3--3--3--3--3--3--|--2----2--2--2--2----2--2--2--|


                                                                          
----------------------------------|--------------------------------------|
----------------------------------|--------------------------------------|
----------------------------------|--------------------------------------|
----------------------------------|--2--2--2--3--2--2--2--2--2--3--2--2--|
--4----4--4--4--4--4--4--4--4--4--|--0--0--0--0--0--0--0--0--0--0--0--0--|
--2----2--2--2--2--2--2--2--2--2--|--------------------------------------|


                                                                              
--------------------------------------|-------------------------------------
--------------------------------------|-------------------------------------
--------------------------------------|-------------------------------------
--2--2--2--3--2--2--2--2--2--3--2--2--|-----------2-----------------2-------
--0--0--0--0--0--0--0--0--0--0--0--0--|--6--6--6-----6--6--6--6--6-----6--6-
--------------------------------------|--4--4--4--4--4--4--4--4--4--4--4--4-


                                                                      
--------------------------------------|------------------------------|
--------------------------------------|------------------------------|
--------------------------------------|------------------------------|
-----------2-----------------2--------|--0----0--0--0--0----0--0--0--|
--6--6--6-----6--6--6--6--6-----6--6--|------------------------------|
--4--4--4--4--4--4--4--4--4--4--4--4--|--3----3--3--3--3----3--3--3--|


                                                              
------------------------------|------------------------------|
------------------------------|------------------------------|
------------------------------|------------------------------|
----------------0----0--0--0--|------------------------------|
--2----2--2--2----------------|--4----4--4--4--4----4--4--4--|
--3----3--3--3--3----3--3--3--|--2----2--2--2--2----2--2--2--|


                                                                  
----------------------------------|------------------------------|
----------------------------------|------------------------------|
----------------------------------|------------------------------|
----------------------------------|--0----0--0--0--0----0--0--0--|
--4----4--4--4--4--4--4--4--4--4--|------------------------------|
--2----2--2--2--2--2--2--2--2--2--|--3----3--3--3--3----3--3--3--|


                                                              
------------------------------|------------------------------|
------------------------------|------------------------------|
------------------------------|------------------------------|
----------------0----0--0--0--|------------------------------|
--2----2--2--2----------------|--4----4--4--4--4----4--4--4--|
--3----3--3--3--3----3--3--3--|--2----2--2--2--2----2--2--2--|


                                                                          
----------------------------------|--------------------------------------|
----------------------------------|--------------------------------------|
----------------------------------|--------------------------------------|
----------------------------------|--2--2--2--3--2--2--2--2--2--3--2--2--|
--4----4--4--4--4--4--4--4--4--4--|--0--0--0--0--0--0--0--0--0--0--0--0--|
--2----2--2--2--2--2--2--2--2--2--|--------------------------------------|


                                                                              
--------------------------------------|-------------------------------------
--------------------------------------|-------------------------------------
--------------------------------------|-------------------------------------
--2--2--2--3--2--2--2--2--2--3--2--2--|-----------2-----------------2-------
--0--0--0--0--0--0--0--0--0--0--0--0--|--6--6--6-----6--6--6--6--6-----6--6-
--------------------------------------|--4--4--4--4--4--4--4--4--4--4--4--4-

                                                                              
--------------------------------------|-------------------------------------
--------------------------------------|-------------------------------------
--------------------------------------|-------------------------------------
-----------2-----------------2--------|--2--2--2--3--2--2--2--2--2--3--2--2-
--6--6--6-----6--6--6--6--6-----6--6--|--0--0--0--0--0--0--0--0--0--0--0--0-
--4--4--4--4--4--4--4--4--4--4--4--4--|-------------------------------------

                                                                              
--------------------------------------|-------------------------------------
--------------------------------------|-------------------------------------
--------------------------------------|-------------------------------------
--2--2--2--3--2--2--2--2--2--3--2--2--|-----------2-----------------2-------
--0--0--0--0--0--0--0--0--0--0--0--0--|--6--6--6-----6--6--6--6--6-----6--6-
--------------------------------------|--4--4--4--4--4--4--4--4--4--4--4--4-


                                                                      
--------------------------------------|------------------------------|
--------------------------------------|------------------------------|
--------------------------------------|------------------------------|
-----------2-----------------2--------|--0----0--0--0--0----0--0--0--|
--6--6--6-----6--6--6--6--6-----6--6--|------------------------------|
--4--4--4--4--4--4--4--4--4--4--4--4--|--3----3--3--3--3----3--3--3--|


                                                              
------------------------------|------------------------------|
------------------------------|------------------------------|
------------------------------|------------------------------|
----------------0----0--0--0--|------------------------------|
--2----2--2--2----------------|--4----4--4--4--4----4--4--4--|
--3----3--3--3--3----3--3--3--|--2----2--2--2--2----2--2--2--|


                                                               
-------------------------------|------------------------------|
-------------------------------|------------------------------|
-------------------------------|------------------------------|
-------------------------------|--0----0--0--0--0----0--0--0--|
--4----4--4--4--4----4----4----|------------------------------|
--2----2--2--2--2----2----2----|--3----3--3--3--3----3--3--3--|


                                                              
------------------------------|------------------------------|
------------------------------|------------------------------|
------------------------------|------------------------------|
----------------0----0--0--0--|------------------------------|
--2----2--2--2----------------|--4----4--4--4--4----4--4--4--|
--3----3--3--3--3----3--3--3--|--2----2--2--2--2----2--2--2--|


                                                                   
-------------------------------|----------------------------------|
-------------------------------|----------------------------------|
-------------------------------|------------------2-2-2-2-2-2-2-2-|
-------------------------------|----------------------------------|
--4----4--4--4--4----4----4----|--0-0-0-0-0-0-0-0-0-0-0-0-0-0-0-0-|
--2----2--2--2--2----2----2----|--5-5-5-5-5-5-5-5-----------------|


                                                                      
----------------------------------|----------------------------------|
----------------------------------|----------------------------------|
----------------------------------|------------------2-2-2-2-2-2-2-2-|
--1-1-1-1-1-1-1-1-1-1-1-1-1-1-1-1-|----------------------------------|
--0-0-0-0-0-0-0-0-0-0-0-0-0-0-0-0-|--0-0-0-0-0-0-0-0-0-0-0-0-0-0-0-0-|
----------------------------------|--5-5-5-5-5-5-5-5-----------------|


                                                                      
----------------------------------|----------------------------------|
----------------------------------|------------------0-0-0-0-0-0-0-0-|
----------------------------------|----------------------------------|
--1-1-1-1-1-1-1-1-1-1-1-1-1-1-1-1-|----------------------------------|
--0-0-0-0-0-0-0-0-0-0-0-0-0-0-0-0-|--2-2-2-2-2-2-2-2-----------------|
----------------------------------|----------------------------------|


                                                                      
----------------------------------|----------------------------------|
----------------------------------|------------------0-0-0-0-0-0-0-0-|
----------------------------------|----------------------------------|
--3-3-3-3-3-3-3-3-3-3-3-3-3-3-3-3-|----------------------------------|
--2-2-2-2-2-2-2-2-2-2-2-2-2-2-2-2-|--2-2-2-2-2-2-2-2-----------------|
----------------------------------|----------------------------------|


                                                                      
----------------------------------|------------------0-0-0-0---------|
----------------------------------|----------------------------------|
----------------------------------|----------------------------------|
--3-3-3-3-3-3-3-3-3-3-3-3-3-3-3-3-|--2-2-2-2-------------------------|
--2-2-2-2-2-2-2-2-2-2-2-2-2-2-2-2-|----------0-0-0-0---------0-0-0-0-|
----------------------------------|----------------------------------|


                                                                      
------------------0-0-0-0---------|----------------------------------|
----------------------------------|------------------0-0-0-0---------|
----------------------------------|----------------------------------|
--2-2-2-2-------------------------|----------------------------------|
----------0-0-0-0---------0-0-0-0-|--2-2-2-2-0-0-0-0---------0-0-0-0-|
----------------------------------|----------------------------------|


                                                                      
----------------------------------|----------------------------------|
------------------0-0-0-0---------|------------------1-1-1-1---------|
----------------------------------|----------------------------------|
----------------------------------|----------------------------------|
--2-2-2-2-0-0-0-0---------0-0-0-0-|--3-3-3-3-0-0-0-0---------0-0-0-0-|
----------------------------------|----------------------------------|


                                                                      
----------------------------------|----------------------------------|
------------------1-1-1-1---------|------------------3-3-3-3---------|
----------------------------------|----------------------------------|
----------------------------------|--0-0-0-0-------------------------|
--3-3-3-3-0-0-0-0---------0-0-0-0-|----------0-0-0-0---------0-0-0-0-|
----------------------------------|----------------------------------|


                                                                      
----------------------------------|------------------0-0-0-0---------|
------------------3-3-3-3---------|----------------------------------|
----------------------------------|----------------------------------|
--0-0-0-0-------------------------|--2-2-2-2-------------------------|
----------0-0-0-0---------0-0-0-0-|----------0-0-0-0---------0-0-0-0-|
----------------------------------|----------------------------------|


                                                                      
------------------0-0-0-0---------|----------------------------------|
----------------------------------|------------------0-0-0-0---------|
----------------------------------|----------------------------------|
--2-2-2-2-------------------------|----------------------------------|
----------0-0-0-0---------0-0-0-0-|--2-2-2-2-0-0-0-0---------0-0-0-0-|
----------------------------------|----------------------------------|


                                                                      
----------------------------------|----------------------------------|
------------------0-0-0-0---------|------------------1-1-1-1---------|
----------------------------------|----------------------------------|
----------------------------------|----------------------------------|
--2-2-2-2-0-0-0-0---------0-0-0-0-|--3-3-3-3-0-0-0-0---------0-0-0-0-|
----------------------------------|----------------------------------|


                                                                      
----------------------------------|----------------------------------|
------------------1-1-1-1---------|------------------3-3-3-3---------|
----------------------------------|----------------------------------|
----------------------------------|--0-0-0-0-------------------------|
--3-3-3-3-0-0-0-0---------0-0-0-0-|----------0-0-0-0---------0-0-0-0-|
----------------------------------|----------------------------------|


                                                                      
----------------------------------|------------------0-0-0-0---------|
------------------3-3-3-3---------|----------------------------------|
----------------------------------|----------------------------------|
--0-0-0-0-------------------------|--2-2-2-2-------------------------|
----------0-0-0-0---------0-0-0-0-|----------0-0-0-0---------0-0-0-0-|
----------------------------------|----------------------------------|


                                                                      
------------------0-0-0-0---------|----------------------------------|
----------------------------------|------------------0-0-0-0---------|
----------------------------------|----------------------------------|
--2-2-2-2-------------------------|----------------------------------|
----------0-0-0-0---------0-0-0-0-|--2-2-2-2-0-0-0-0---------0-0-0-0-|
----------------------------------|----------------------------------|


                                                                      
----------------------------------|----------------------------------|
------------------0-0-0-0---------|------------------1-1-1-1---------|
----------------------------------|----------------------------------|
----------------------------------|----------------------------------|
--2-2-2-2-0-0-0-0---------0-0-0-0-|--3-3-3-3-0-0-0-0---------0-0-0-0-|
----------------------------------|----------------------------------|


                                                                      
----------------------------------|----------------------------------|
------------------1-1-1-1---------|------------------3-3-3-3---------|
----------------------------------|----------------------------------|
----------------------------------|--0-0-0-0-------------------------|
--3-3-3-3-0-0-0-0---------0-0-0-0-|----------0-0-0-0---------0-0-0-0-|
----------------------------------|----------------------------------|


                                                                      
----------------------------------|------------------0-0-0-0---------|
------------------3-3-3-3---------|----------------------------------|
----------------------------------|----------------------------------|
--0-0-0-0-------------------------|--2-2-2-2-------------------------|
----------0-0-0-0---------0-0-0-0-|----------0-0-0-0---------0-0-0-0-|
----------------------------------|----------------------------------|


                                                                      
------------------0-0-0-0---------|----------------------------------|
----------------------------------|------------------0-0-0-0---------|
----------------------------------|----------------------------------|
--2-2-2-2-------------------------|----------------------------------|
----------0-0-0-0---------0-0-0-0-|--2-2-2-2-0-0-0-0---------0-0-0-0-|
----------------------------------|----------------------------------|


                                                                      
----------------------------------|----------------------------------|
------------------0-0-0-0---------|------------------1-1-1-1---------|
----------------------------------|----------------------------------|
----------------------------------|----------------------------------|
--2-2-2-2-0-0-0-0---------0-0-0-0-|--3-3-3-3-0-0-0-0---------0-0-0-0-|
----------------------------------|----------------------------------|


                                                                      
----------------------------------|----------------------------------|
------------------1-1-1-1---------|------------------3-3-3-3---------|
----------------------------------|----------------------------------|
----------------------------------|--0-0-0-0-------------------------|
--3-3-3-3-0-0-0-0---------0-0-0-0-|----------0-0-0-0---------0-0-0-0-|
----------------------------------|----------------------------------|


                                                                      
----------------------------------|----------------------------------|
------------------3-3-3-3---------|----------------------------------|
----------------------------------|----------------------------------|
--0-0-0-0-------------------------|----------------------------------|
----------0-0-0-0---------0-0-0-0-|--0-0-0-0-0-0-0-0-0-0-0-0-0-0-0-0-|
----------------------------------|--5-5-5-5-5-5-5-5-5-5-5-5-5-5-5-5-|


                                                                      
----------------------------------|----------------------------------|
----------------------------------|----------------------------------|
----------------------------------|----------------------------------|
----------------------------------|----------------------------------|
--0-0-0-0-0-0-0-0-0-0-0-0-0-0-0-0-|--0-0-0-0-0-0-0-0-0-0-0-0-0-0-0-0-|
--5-5-5-5-5-5-5-5-5-5-5-5-5-5-5-5-|--7-7-7-7-7-7-7-7-7-7-7-7-7-7-7-7-|


                                                                      
----------------------------------|----------------------------------|
----------------------------------|----------------------------------|
----------------------------------|----------------------------------|
----------------------------------|----------------------------------|
--0-0-0-0-0-0-0-0-0-0-0-0-0-0-0-0-|--0-0-0-0-0-0-0-0-0-0-0-0-0-0-0-0-|
--7-7-7-7-7-7-7-7-7-7-7-7-7-7-7-7-|--8-8-8-8-8-8-8-8-8-8-8-8-8-8-8-8-|


                                                                      
----------------------------------|----------------------------------|
----------------------------------|----------------------------------|
----------------------------------|----------------------------------|
----------------------------------|--0-0-0-0-0-0-0-0-0-0-0-0-0-0-0-0-|
--0-0-0-0-0-0-0-0-0-0-0-0-0-0-0-0-|--0-0-0-0-0-0-0-0-0-0-0-0-0-0-0-0-|
--8-8-8-8-8-8-8-8-8-8-8-8-8-8-8-8-|----------------------------------|


                                                                      
----------------------------------|----------------------------------|
----------------------------------|----------------------------------|
----------------------------------|----------------------------------|
--0-0-0-0-0-0-0-0-0-0-0-0-0-0-0-0-|----------------------------------|
--0-0-0-0-0-0-0-0-0-0-0-0-0-0-0-0-|--0-0-0-0-0-0-0-0-0-0-0-0-0-0-0-0-|
----------------------------------|--5-5-5-5-5-5-5-5-5-5-5-5-5-5-5-5-|


                                                                      
----------------------------------|----------------------------------|
----------------------------------|----------------------------------|
----------------------------------|----------------------------------|
----------------------------------|----------------------------------|
--0-0-0-0-0-0-0-0-0-0-0-0-0-0-0-0-|--0-0-0-0-0-0-0-0-0-0-0-0-0-0-0-0-|
--5-5-5-5-5-5-5-5-5-5-5-5-5-5-5-5-|--7-7-7-7-7-7-7-7-7-7-7-7-7-7-7-7-|


                                                                      
----------------------------------|----------------------------------|
----------------------------------|----------------------------------|
----------------------------------|----------------------------------|
----------------------------------|----------------------------------|
--0-0-0-0-0-0-0-0-0-0-0-0-0-0-0-0-|--0-0-0-0-0-0-0-0-0-0-0-0-0-0-0-0-|
--7-7-7-7-7-7-7-7-7-7-7-7-7-7-7-7-|--8-8-8-8-8-8-8-8-8-8-8-8-8-8-8-8-|


                                                                      
----------------------------------|----------------------------------|
----------------------------------|----------------------------------|
----------------------------------|----------------------------------|
----------------------------------|--0-0-0-0-0-0-0-0-0-0-0-0-0-0-0-0-|
--0-0-0-0-0-0-0-0-0-0-0-0-0-0-0-0-|--0-0-0-0-0-0-0-0-0-0-0-0-0-0-0-0-|
--8-8-8-8-8-8-8-8-8-8-8-8-8-8-8-8-|----------------------------------|


                                                                      
----------------------------------|----------------------------------|
----------------------------------|----------------------------------|
----------------------------------|------------------2-2-2-2---------|
--0-0-0-0-0-0-0-0-0-0-0-0-0-0-0-0-|----------2-2-2-2---------2-2-2-2-|
--0-0-0-0-0-0-0-0-0-0-0-0-0-0-0-0-|--0-0-0-0-------------------------|
----------------------------------|----------------------------------|


                                                                      
----------------------------------|----------------------------------|
----------------------------------|----------------------------------|
------------------2-2-2-2---------|------------------2-2-2-2---------|
----------2-2-2-2---------2-2-2-2-|----------2-2-2-2---------2-2-2-2-|
--0-0-0-0-------------------------|--2-2-2-2-------------------------|
----------------------------------|----------------------------------|


                                                                      
----------------------------------|----------------------------------|
----------------------------------|----------------------------------|
------------------2-2-2-2---------|------------------2-2-2-2---------|
----------2-2-2-2---------2-2-2-2-|----------2-2-2-2---------2-2-2-2-|
--2-2-2-2-------------------------|--3-3-3-3-------------------------|
----------------------------------|----------------------------------|


                                                                      
----------------------------------|------------------0-0-0-0---------|
----------------------------------|----------------------------------|
------------------2-2-2-2---------|----------------------------------|
----------2-2-2-2---------2-2-2-2-|--0-0-0-0-2-2-2-2---------2-2-2-2-|
--3-3-3-3-------------------------|----------------------------------|
----------------------------------|----------------------------------|


                                                                      
------------------0-0-0-0---------|----------------------------------|
----------------------------------|----------------------------------|
----------------------------------|------------------2-2-2-2---------|
--0-0-0-0-2-2-2-2---------2-2-2-2-|----------2-2-2-2---------2-2-2-2-|
----------------------------------|--0-0-0-0-------------------------|
----------------------------------|----------------------------------|


                                                                      
----------------------------------|----------------------------------|
----------------------------------|----------------------------------|
------------------2-2-2-2---------|------------------2-2-2-2---------|
----------2-2-2-2---------2-2-2-2-|----------2-2-2-2---------2-2-2-2-|
--0-0-0-0-------------------------|--2-2-2-2-------------------------|
----------------------------------|----------------------------------|


                                                                      
----------------------------------|----------------------------------|
----------------------------------|----------------------------------|
------------------2-2-2-2---------|------------------2-2-2-2---------|
----------2-2-2-2---------2-2-2-2-|----------2-2-2-2---------2-2-2-2-|
--2-2-2-2-------------------------|--3-3-3-3-------------------------|
----------------------------------|----------------------------------|


                                                                      
----------------------------------|------------------0-0-0-0---------|
----------------------------------|----------------------------------|
------------------2-2-2-2---------|----------------------------------|
----------2-2-2-2---------2-2-2-2-|--0-0-0-0-2-2-2-2---------2-2-2-2-|
--3-3-3-3-------------------------|----------------------------------|
----------------------------------|----------------------------------|


                                                        
------------------0-0-0-0---------|-------------------||
----------------------------------|-------------------||
----------------------------------|-------------------||
--0-0-0-0-2-2-2-2---------2-2-2-2-|--2----------------||
----------------------------------|--0----------------||
----------------------------------|-------------------||
comments
We did not receive enough feedback on this tab! Please rate:
print report bad tab
1 2 3 4 5
2 comments total.
-1 reply
StuartR wrote on May 20 2005, 12:00 am

Thats some tab, funnily enough i was listening to that song when i saw it on my favorites.

-1 reply
dead fleshh wrote on October 30 2006, 06:22 pm

Go to hell with your shit!!!

I want to post or [tab]
guest
You may want to rate the tab now too:
select rating
Please do not post tabs as comments. Select "correction" instead!