Oops, an error
Loading. Please wait.

The Warriors Of Modern Death Tab

ver1
ver1

Whole song

Interactive

More versions @911Tabs.com
392 views 1 this week
no commentswrite comment
1 2 3 4 5
please rate
Autoscroll
+/-
esc
set tempo
stop
Contributor
Difficulty
Tabbers playing skills
intermediate
intermediate ++
Hey! There's an official Ultimate Guitar app which is ideal
for learning songs when you're away from computer. Get the app
WARNING: You are trying to view
                                    content from Ultimate-Guitar.com
                                    in an unauthorized application,
                                    which is prohibited.

                                    Please use an official Ultimate
                                    Guitar Tabs application for iPhone,
                                    iPad or Android to access legitimate
                                    chords, guitar, bass, and drum tabs
                                    from Ultimate-Guitar.com database.

                                    Type "ultimate guitar tabs" in Apple
                                    App Store's or Android Market's
                                    search to find the application.
         THE WARRIORS OF MODERN DEATH
                             As recorded by Emperor
                      (From the 1999 Album IX EQUILIBRIUM)


Tablature Legend
----------------
 h   - hammer-on
 p   - pull-off
 b   - bend
 pb  - pre-bend
 r   - bend release (if no number after the r, then release immediately)
 /\  - slide into or out of (from/to "nowhere")
 s   - legato slide
 S   - shift slide
  - natural harmonic
[n]  - artificial harmonic
n(n) - tapped harmonic
 ~   - vibrato
 tr  - trill
 T   - tap
 TP  - trem. picking
 PM  - palm muting
\n/  - tremolo bar dip; n = amount to dip
 \n  - tremolo bar down
 n/  - tremolo bar up
/n\  - tremolo bar inverted dip
 =   - hold bend; also acts as connecting device for hammers/pulls
 <>  - volume swell (louder/softer)
 x   - on rhythm slash represents muted slash
 o   - on rhythm slash represents single note slash

Words and Music by Ihsahn
Transcribed by Inflames130

  Q=108
 4/4
  Gtr I
|---------------------|-----------------------|-----------------------|
|---------------------|-----------------------|-----------------------|
|---------------------|-----------------------|-----------------------|
|---------------------|-----------------------|-----------------------|
|-2-2-5-2-2-2-2-6S5S6-|-(6)-2-5-2-2-2-2-6S5S8-|-(8)-2-5-2-2-2-2-6S5S6-|
|-0-0-3-0-0-0-0-6S5S6-|-(6)-0-3-0-0-0-0-6S5S8-|-(8)-0-3-0-0-0-0-6S5S6-|


|---------------------------|---------------------|------------------------|
|---------------------------|---------------------|------------------------|
|---------------------------|---------------------|------------------------|
|---------------------------|---------------------|-(1)--------------------|
|-(6)-1-1-1S4-4-4S3-3-3S1-1-|-2-2-5-2-2-2-2-6S5S6-|-(1)-2-5-2-2-2-2-6S5S8--|
|-(6)-1-1-1S4-4-4S3-3-3S1-1-|-0-0-3-0-0-0-0-6S5S6-|-----0-3-0-0-0-0-6S5S8--|


|-----------------------|---------------------------|----------------------|
|-----------------------|---------------------------|----------------------|
|-----------------------|---------------------------|----------------------|
|-----------------------|---------------------------|----------------------|
|-(8)-2-5-2-2-2-2-6S5S6-|-(6)-1-1-1S4-4-4S3-3-3S1-1-|-2-2-5-2-2-2-2-6S5S6--|
|-(8)-0-3-0-0-0-0-6S5S6-|-(6)-1-1-1S4-4-4S3-3-3S1-1-|-0-0-3-0-0-0-0-6S5S6--|


|-----------------------|-----------------------|----------------------------|
|-----------------------|-----------------------|----------------------------|
|-----------------------|-----------------------|----------------------------|
|-----------------------|-----------------------|----------------------------|
|-(6)-2-5-2-2-2-2-6S5S8-|-(8)-2-5-2-2-2-2-6S5S6-|-(6)-1-1-1S4-4-4S3-3-3S1-1--|
|-(6)-0-3-0-0-0-0-6S5S8-|-(8)-0-3-0-0-0-0-6S5S6-|-(6)-1-1-1S4-4-4S3-3-3S1-1--|


|---------------------|-----------------------|-----------------------|
|---------------------|-----------------------|-----------------------|
|---------------------|-----------------------|-----------------------|
|---------------------|-----------------------|-----------------------|
|-2-2-5-2-2-2-2-6S5S6-|-(6)-2-5-2-2-2-2-6S5S8-|-(8)-2-5-2-2-2-2-6S5S6-|
|-0-0-3-0-0-0-0-6S5S6-|-(6)-0-3-0-0-0-0-6S5S8-|-(8)-0-3-0-0-0-0-6S5S6-|


|----------------------------|
|----------------------------|
|----------------------------|
|----------------------------|
|-(6)-1-1-1S4-4-4S=3-3-3S1-1-|
|-(6)-1-1-1S4-4-4S=3-3-3S1-1-|
|
| Gtr II
|----------------------------|
|----------------------------|
|----------------------------|
|----------------------------|
|--x\-----------x\-----------|
|--x\-----------x\-----------|


|--------------------------|---------------------------|
|--------------------------|---------------------------|
|--------------------------|---------------------------|
|--------------------------|---------------------------|
|--2-----2-5-2-2-2-2-6S5S6-|-(6)----2-5-2-2-2-2-6S5S8--|
|--0-----0-3-0-0-0-0-6S5S6-|-(6)----0-3-0-0-0-0-6S5S8--|
|
|-12-----------------------|--7------------------------|
|-15b17====================|=10b12=====================|
|--------------------------|---------------------------|
|--------------------------|---------------------------|
|--------------------------|---------------------------|
|--------------------------|---------------------------|


|--------------------------|------------------------------|
|--------------------------|------------------------------|
|--------------------------|------------------------------|
|--------------------------|------------------------------|
|-(8)----2-5-2-2-2-2-6S5S6-|-(6)----1-1-1S4-4-4S3-3-3S1-1-|
|-(8)----0-3-0-0-0-0-6S5S6-|-(6)----1-1-1S4-4-4S3-3-3S1-1-|
|
|-10-----------------------|--9---------------------------|
|-13b15====================|=12b14========================|
|--------------------------|------------------------------|
|--------------------------|------------------------------|
|--------------------------|------------------------------|
|--------------------------|------------------------------|


|-------------------------------------------------------------------------|
|-------------------------------------------------------------------------|
|-------------------------------------------------------------------------|
|-------------------------------------------------------------------------|
|--2-----------2-----5-----2-----2-----2-----------2-----6S====5S====6----|
|--0-----------0-----3-----0-----0-----0-----------0-----6S====5S====6----|
|
|----12h14h15p14p12----12h14h15p14p12----12h14h15p14p12----12h14h15p14p12-|
|-15----------------15----------------15----------------15----------------|
|-------------------------------------------------------------------------|
|-------------------------------------------------------------------------|
|-------------------------------------------------------------------------|
|-------------------------------------------------------------------------|


|--------------------------------------------------------------------------|
|--------------------------------------------------------------------------|
|--------------------------------------------------------------------------|
|--------------------------------------------------------------------------|
|-(6)-----------2-----5-----2-----2-----2-----------2-----6S====5S====8----|
|-(6)-----------0-----3-----0-----0-----0-----------0-----6S====5S====8----|
|
|-----14h15h17p15p14----14h15h17p15p14----14h15h17p15p14----14h15h17p15p14-|
|-17-----------------17----------------17----------------17----------------|
|--------------------------------------------------------------------------|
|--------------------------------------------------------------------------|
|--------------------------------------------------------------------------|
|--------------------------------------------------------------------------|


|--------------------------------------------------------------------------|
|--------------------------------------------------------------------------|
|--------------------------------------------------------------------------|
|--------------------------------------------------------------------------|
|-(8)-----------2-----5-----2-----2-----2-----------2-----6S====5S====6----|
|-(8)-----------0-----3-----0-----0-----0-----------0-----6S====5S====6----|
|
|-----15h17h19p17p15----15h17h19p17p15----15h17h19p17p15----15h17h19p17p15-|
|-19-----------------19----------------19----------------19----------------|
|--------------------------------------------------------------------------|
|--------------------------------------------------------------------------|
|--------------------------------------------------------------------------|
|--------------------------------------------------------------------------|


|---------------------------------------------------------------------------|
|---------------------------------------------------------------------------|
|---------------------------------------------------------------------------|
|---------------------------------------------------------------------------|
|-(6)-----1-----1-----1S====4-----4-----4S====3-----3-----3S====1-----1-----|
|-(6)-----1-----1-----1S====4-----4-----4S====3-----3-----3S====1-----1-----|
|
|-18--21p19p18-20p18p17-19p17p16-18p16p15-17p16p14--------------------------|
|--------------------------------------------------17p16p14-16p14p13S12S11\-|
|---------------------------------------------------------------------------|
|---------------------------------------------------------------------------|
|---------------------------------------------------------------------------|
|---------------------------------------------------------------------------|


                                              PM--|
|-------------------------|-------------------------|
|-------------------------|-------------------------|
|-------------------------|-------------------------|
|-------------------------|-------------------------|
|--7----7-7-7-7-7-7-7-7-7-|-7-7-7-7-7-7-7-5-5-5-3-3-|
|--5----5-5-5-5-5-5-5-5-5-|-5-8-8-8-8-8-8-6-6-3-1-1-|
|
|-12----------------------|-------------------------|
|-15b17-------------------|-------------------------|
|-------------------------|-------------------------|
|-------------------------|-------------------------|
|-------------------------|-------------------------|
|-------------------------|-------------------------|


  Gtr I
        PM----------------------|
|-------------------------|------------------------|
|-------------------------|------------------------|
|-------------------------|------------------------|
|-------------------------|------------------------|
|-2-2-2-2-2-2-2-2-2-2-2-2-|-2-2-2-6S5S6-(6)--6-5-3-|
|-0-0-0-0-0-0-0-0-0-0-0-0-|-0-0-0-6S5S6-(6)--6-5-3-|


                                          PM--|
|---------------------|-------------------------|
|---------------------|-------------------------|
|---------------------|-------------------------|
|---------------------|-------------------------|
|-7-7-7-7-7-7-7-7-7-7-|-7-7-7-7-7-7-7-5-5-5-3-3-|
|-5-5-5-5-5-5-5-5-5-5-|-5-8-8-8-8-8-8-6-6-3-1-1-|


|-----------------------|-------------------------|
|-----------------------|-------------------------|
|-----------------------|-------------------------|
|-----------------------|-------------------------|
|-2-2-6S5S6-(6)-2-6S5S8-|-(8)-2-6S5S6-(6)-2-6S5S4-|
|-0-0-6S5S6-(6)-0-6S5S8-|-(8)-0-6S5S6-(6)-0-6S5S4-|


|---------------------|-------------------------|
|---------------------|-------------------------|
|---------------------|-------------------------|
|---------------------|-------------------------|
|-3-3-3-3-3-3-3-3-3-3-|-3S6-6-6-6-6-6S4-4-4-4-4-|
|-3-3-3-3-3-3-3-3-3-3-|-3S6-6-6-6-6-6S4-4-4-4-4-|


|---------------------|-------------------------|
|---------------------|-------------------------|
|---------------------|-------------------------|
|---------------------|-------------------------|
|-3-3-3-3-3-3-3-3-3-3-|-3S6-6-6-6-6-6S4-4-4S7-7-|
|-3-3-3-3-3-3-3-3-3-3-|-3S6-6-6-6-6-6S4-4-4S7-7-|


|---------------------|-------------------------|
|---------------------|-------------------------|
|---------------------|-------------------------|
|---------------------|-------------------------|
|-3-3-3-3-3-3-3-3-3-3-|-3S6-6-6-6-6-6S4-4-4-4-4-|
|-3-3-3-3-3-3-3-3-3-3-|-3S6-6-6-6-6-6S4-4-4-4-4-|


|---------------------|--------------|
|---------------------|--------------|
|---------------------|--------------|
|---------------------|--------------|
|-3-3-3-3-3-6-6-6-6-6-|-9--10--9--8--|
|-3-3-3-3-3-4-4-4-4-4-|-7------------|


|---------------------|-----------------------|
|---------------------|-----------------------|
|---------------------|-----------------------|
|---------------------|-----------------------|
|-2-2-5-2-2-2-2-6S5S6-|-(6)-2-5-2-2-2-2-6S5S8-|
|-0-0-3-0-0-0-0-6S5S6-|-(6)-0-3-0-0-0-0-6S5S8-|


|-----------------------|---------------------------|
|-----------------------|---------------------------|
|-----------------------|---------------------------|
|-----------------------|---------------------------|
|-(8)-2-5-2-2-2-2-6S5S6-|-(6)-1-1-1S4-4-4S3-3-3S1-1-|
|-(8)-0-3-0-0-0-0-6S5S6-|-(6)-1-1-1S4-4-4S3-3-3S1-1-|


|---------------------|-----------------------|
|---------------------|-----------------------|
|---------------------|-----------------------|
|---------------------|-----------------------|
|-2-2-5-2-2-2-2-6S5S6-|-(6)-2-5-2-2-2-2-6S5S8-|
|-0-0-3-0-0-0-0-6S5S6-|-(6)-0-3-0-0-0-0-6S5S8-|


|-----------------------|---------------------------|
|-----------------------|---------------------------|
|-----------------------|---------------------------|
|-----------------------|---------------------------|
|-(8)-2-5-2-2-2-2-6S5S6-|-(6)-1-1-1S4-4-4S3-3-3S1-1-|
|-(8)-0-3-0-0-0-0-6S5S6-|-(6)-1-1-1S4-4-4S3-3-3S1-1-|


                                          PM--|
|---------------------|-------------------------|
|---------------------|-------------------------|
|---------------------|-------------------------|
|---------------------|-------------------------|
|-7-7-7-7-7-7-7-7-7-7-|-7-7-7-7-7-7-7-5-5-5-3-3-|
|-5-5-5-5-5-5-5-5-5-5-|-5-8-8-8-8-8-8-6-6-3-1-1-|


  Gtr I
        PM----------------------|
|-------------------------|------------------------|
|-------------------------|------------------------|
|-------------------------|------------------------|
|-------------------------|------------------------|
|-2-2-2-2-2-2-2-2-2-2-2-2-|-2-2-2-6S5S6-(6)--6-5-3-|
|-0-0-0-0-0-0-0-0-0-0-0-0-|-0-0-0-6S5S6-(6)--6-5-3-|


                                          PM--|
|---------------------|-------------------------|
|---------------------|-------------------------|
|---------------------|-------------------------|
|---------------------|-------------------------|
|-7-7-7-7-7-7-7-7-7-7-|-7-7-7-7-7-7-7-5-5-5-3-3-|
|-5-5-5-5-5-5-5-5-5-5-|-5-8-8-8-8-8-8-6-6-3-1-1-|


|-----------------------|-----------------------|
|-----------------------|-----------------------|
|-----------------------|-----------------------|
|-----------------------|-----------------------|
|-2-2-6S5S6-(6)-2-6S5S8-|-(8)-2-6S5S6-6-2-6S5S4-|
|-0-0-6S5S6-(6)-0-6S5S8-|-(8)-0-6S5S6-6-0-6S5S4-|


|-------------------------|-------------------------|
|-------------------------|-------------------------|
|-------------------------|-------------------------|
|-------------------------|-------------------------|
|-3-3-3-3-3-3-3-3-3-3-3-3-|-3S6-6-6-6-6-6S4-4-4-4-4-|
|-3-3-3-3-3-3-3-3-3-3-3-3-|-3S6-6-6-6-6-6S4-4-4-4-4-|


|-------------------------|-------------------------|
|-------------------------|-------------------------|
|-------------------------|-------------------------|
|-------------------------|-------------------------|
|-3-3-3-3-3-3-3-3-3-3-3-3-|-3S6-6-6-6-6-6S4-4-4S7-7-|
|-3-3-3-3-3-3-3-3-3-3-3-3-|-3S6-6-6-6-6-6S4-4-4S7-7-|


|-------------------------|-------------------------|
|-------------------------|-------------------------|
|-------------------------|-------------------------|
|-------------------------|-------------------------|
|-3-3-3-3-3-3-3-3-3-3-3-3-|-3S6-6-6-6-6-6S4-4-4-4-4-|
|-3-3-3-3-3-3-3-3-3-3-3-3-|-3S6-6-6-6-6-6S4-4-4-4-4-|


|---------------------|---------------------|
|---------------------|---------------------|
|---------------------|---------------------|
|---------------------|-7-7-7-7-7-----------|
|-3-3-3-3-3-6-6-6-6-6-|-5-5-5-5-5-4-4-4-4-4-|
|-3-3-3-3-3-4-4-4-4-4-|-----------2-2-2-2-2-|


    PM--|    PM--|    PM--|    PM--|      PM--|    PM--|    PM--|    PM--|
|-------------------------------------|-------------------------------------|
|-------------------------------------|-------------------------------------|
|-------------------------------------|-------------------------------------|
|-------------------------------------|-------------------------------------|
|-3--------2--------3--------2--------|-3--------2--------3--------2--------|
|---4-3-1----4-3-1----4-3-1----4-3-1--|---4-3-1----4-3-1----4-3-1----4-3-1--|


    PM--|    PM--|    PM--|    PM--|      PM--|    PM--|    PM--|    PM--|
|-------------------------------------|-------------------------------------|
|-------------------------------------|-------------------------------------|
|-------------------------------------|-------------------------------------|
|-------------------------------------|-------------------------------------|
|-4--------3--------4--------3--------|-4--------3--------4--------3--------|
|---5-4-2----5-4-2----5-4-2----5-4-2--|---5-4-2----5-4-2----5-4-2----5-4-2--|


    PM--|    PM--|    PM--|    PM--|      PM--|    PM--|    PM--|    PM--|
|-------------------------------------|-------------------------------------|
|-------------------------------------|-------------------------------------|
|-------------------------------------|-------------------------------------|
|-------------------------------------|-------------------------------------|
|-5--------5--------6--------5--------|-7--------6--------8--------7--------|
|---6-5-3----6-5-3----7-6-4----7-6-4--|---8-7-5----8-7-5----9-8-6----9-8-6--|


     PM--|     PM--|
|---------------------------|--------------------|
|---------------------------|--------------------|
|---------------------------|--------------------|
|---------------------------|--------------------|
|-9---------8---------3-----|-2------------------|
|---10-9-7----10-9-7-----4--|---------------12\--|
|
| Gtr II
|---------------------------|--------------------|
|---------------------------|----/20--/19--/18---|
|---------------------------|--------------------|
|---------------------------|--------------------|
|---------------------------|--------------------|
|---------------------------|--------------------|


|--------------------------|--------------------------|
|--------------------------|--------------------------|
|--------------------------|--------------------------|
|--------------------------|--------------------------|
|--2-----2-5-2-2-2-2-6S5S6-|-(6)----2-5-2-2-2-2-6S5S8-|
|--0-----0-3-0-0-0-0-6S5S6-|-(6)----0-3-0-0-0-0-6S5S8-|
|
|-12-----------------------|--7-----------------------|
|-15b17====================|=10b12====================|
|--------------------------|--------------------------|
|--------------------------|--------------------------|
|--------------------------|--------------------------|
|--------------------------|--------------------------|


|--------------------------|------------------------------|
|--------------------------|------------------------------|
|--------------------------|------------------------------|
|--------------------------|------------------------------|
|-(8)----2-5-2-2-2-2-6S5S6-|-(6)----1-1-1S4-4-4S3-3-3S1-1-|
|-(8)----0-3-0-0-0-0-6S5S6-|-(6)----1-1-1S4-4-4S3-3-3S1-1-|
|
|-10-----------------------|--9---------------------------|
|-13b15====================|=12b14========================|
|--------------------------|------------------------------|
|--------------------------|------------------------------|
|--------------------------|------------------------------|
|--------------------------|------------------------------|


|-------------------------------------------------------------------------|
|-------------------------------------------------------------------------|
|-------------------------------------------------------------------------|
|-------------------------------------------------------------------------|
|--2-----------2-----5-----2-----2-----2-----------2-----6S====5S====6----|
|--0-----------0-----3-----0-----0-----0-----------0-----6S====5S====6----|
|
|----12h14h15p14p12----12h14h15p14p12----12h14h15p14p12----12h14h15p14p12-|
|-15----------------15----------------15----------------15----------------|
|-------------------------------------------------------------------------|
|-------------------------------------------------------------------------|
|-------------------------------------------------------------------------|
|-------------------------------------------------------------------------|


|-------------------------------------------------------------------------|
|-------------------------------------------------------------------------|
|-------------------------------------------------------------------------|
|-------------------------------------------------------------------------|
|--6-----------2-----5-----2-----2-----2-----------2-----6S====5S====8----|
|--6-----------0-----3-----0-----0-----0-----------0-----6S====5S====8----|
|
|----14h15h17p15p14----14h15h17p15p14----14h15h17p15p14----14h15h17p15p14-|
|-17----------------17----------------17----------------17----------------|
|-------------------------------------------------------------------------|
|-------------------------------------------------------------------------|
|-------------------------------------------------------------------------|
|-------------------------------------------------------------------------|


|-------------------------------------------------------------------------|
|-------------------------------------------------------------------------|
|-------------------------------------------------------------------------|
|-------------------------------------------------------------------------|
|--8-----------2-----5-----2-----2-----2-----------2-----6S====5S====6----|
|--8-----------0-----3-----0-----0-----0-----------0-----6S====5S====6----|
|
|----15h17h19p17p15----15h17h19p17p15----15h17h19p17p15----15h17h19p17p15-|
|-19----------------19----------------19----------------19----------------|
|-------------------------------------------------------------------------|
|-------------------------------------------------------------------------|
|-------------------------------------------------------------------------|
|-------------------------------------------------------------------------|


|--------------------------------------------------------------------------|
|--------------------------------------------------------------------------|
|--------------------------------------------------------------------------|
|--------------------------------------------------------------------------|
|-(6)----1-----1-----1S====4-----4-----4S====3-----3-----3S====1-----1-----|
|-(6)----1-----1-----1S====4-----4-----4S====3-----3-----3S====1-----1-----|
|
|  TP TP TP TP TP TP                                                    TP
|-15S17S18S19S20S21--------------------------------------------------------|
|-------------------20p18p16-19p17p15-18p16p14-17p15p13--------------------|
|-------------------------------------------------------16p14p12-15p13p11\-|
|--------------------------------------------------------------------------|
|--------------------------------------------------------------------------|
|--------------------------------------------------------------------------|


|--------------------------------------|-----------------------|
|--------------------------------------|-----------------------|
|--------------------------------------|-----------------------|
|--------------------------------------|-----------------------|
|-2--------2-5---2---2-2-------2-6S5S6-|-(6)-2-5-2-2-2-2-6S5S8-|
|-0--------0-3---0---0-0-------0-6S5S6-|-(6)-0-3-0-0-0-0-6S5S8-|
|
|-7-9-10-9-7---------------------------|-----------------------|
|--------------------------------------|-----------------------|
|------------4-6-7-6-4-----------------|-----------------------|
|--------------------------------------|-----------------------|
|----------------------2-4-5-4-2-------|-----------------------|
|--------------------------------------|-----------------------|


|-----------------------|---------------------------|
|-----------------------|---------------------------|
|-----------------------|---------------------------|
|-----------------------|---------------------------|
|-(8)-2-5-2-2-2-2-6S5S6-|-(6)-1-1-1S4-4-4S3-3-3S1-1-|
|-(8)-0-3-0-0-0-0-6S5S6-|-(6)-1-1-1S4-4-4S3-3-3S1-1-|
|
|-----------------------|---------------------------|
|-----------------------|---------------------------|
|-----------------------|---------------------------|
|-----------------------|---------------------------|
|-----------------------|---------------------------|
|-----------------------|---------------------------|


|---------------------|-----------------------|
|---------------------|-----------------------|
|---------------------|-----------------------|
|---------------------|-----------------------|
|-2-2-5-2-2-2-2-6S5S6-|-(6)-2-5-2-2-2-2-6S5S8-|
|-0-0-3-0-0-0-0-6S5S6-|-(6)-0-3-0-0-0-0-6S5S8-|
|
|---------------------|-----------------------|
|---------------------|-----------------------|
|---------------------|-----------------------|
|---------------------|-----------------------|
|---------------------|-----------------------|
|---------------------|-----------------------|


|-----------------------|---------------------------|
|-----------------------|---------------------------|
|-----------------------|---------------------------|
|-----------------------|---------------------------|
|-(8)-2-5-2-2-2-2-6S5S6-|-(6)-1-1-1S4-4-4S3-3-3S1-1-|
|-(8)-0-3-0-0-0-0-6S5S6-|-(6)-1-1-1S4-4-4S3-3-3S1-1-|
|
|-----------------------|---------------------------|
|-----------------------|---------------------------|
|-----------------------|---------------------------|
|-----------------------|---------------------------|
|-----------------------|---------------------------|
|-----------------------|---------------------------|


|--------------------------|--------------------------|
|--------------------------|--------------------------|
|--------------------------|--------------------------|
|--------------------------|--------------------------|
|--2-----2-5-2-2-2-2-6S5S6-|-(6)----2-5-2-2-2-2-6S5S8-|
|--0-----0-3-0-0-0-0-6S5S6-|-(6)----0-3-0-0-0-0-6S5S8-|
|
|-12-----------------------|--7-----------------------|
|-15b17====================|=10b12====================|
|--------------------------|--------------------------|
|--------------------------|--------------------------|
|--------------------------|--------------------------|
|--------------------------|--------------------------|


|-----------------------------|-----------------------------|
|-----------------------------|-----------------------------|
|-----------------------------|-----------------------------|
|-----------------------------|-----------------------------|
|-(8)---2-5-2-2-2-2--6S===5S6-|-(6)---1-1-1S4-4-4S3-3-3S1-1-|
|-(8)---0-3-0-0-0-0--6S===5S6-|-(6)---1-1-1S4-4-4S3-3-3S1-1-|
|
|-10--------------------------|--9--------------------------|
|-13b15-------------13b15-----|-12b14-----------------------|
|-----------------------------|-----------------------------|
|-----------------------------|-----------------------------|
|-----------------------------|-----------------------------|
|-----------------------------|-----------------------------|


|-------------------------------|--------------------------|
|-------------------------------|--------------------------|
|-------------------------------|--------------------------|
|-------------------------------|--------------------------|
|--2-----2-5-2-2--2-----2-6S5S6-|-(6)---2-5-2-2-2-2--6S5S8-|
|--0-----0-3-0-0--0-----0-6S5S6-|-(6)---0-3-0-0-0-0--6S5S8-|
|
|-12-------------12-------------|-14----------------14-----|
|-15b17==========15b17==========|=17b19--------------------|
|-------------------------------|--------------------------|
|-------------------------------|--------------------------|
|-------------------------------|--------------------------|
|-------------------------------|--------------------------|


|-----------------------------|---------------------------------|
|-----------------------------|---------------------------------|
|-----------------------------|---------------------------------|
|-----------------------------|---------------------------------|
|-(8)---2-5-2-2--2----2-6S5S6-|-(6)---1-1-1S4-4--4S===3-3-3S1-1-|
|-(8)---0-3-0-0--0----0-6S5S6-|-(6)---1-1-1S4-4--4S===3-3-3S1-1-|
|
|-15------------15------------|-18--------------18--------------|
|-17b19---------17b19---------|-21b23-----------21b23-----------|
|-----------------------------|---------------------------------|
|-----------------------------|---------------------------------|
|-----------------------------|---------------------------------|
|-----------------------------|---------------------------------|


|--------------------------|--------------------------|
|--------------------------|--------------------------|
|--------------------------|--------------------------|
|--------------------------|--------------------------|
|--2-----2-5-2-2-2-2-6S5S6-|-(6)----2-5-2-2-2-2-6S5S8-|
|--0-----0-3-0-0-0-0-6S5S6-|-(6)----0-3-0-0-0-0-6S5S8-|
|
|-12-----------------------|--7-----------------------|
|-15b17====================|=10b12====================|
|--------------------------|--------------------------|
|--------------------------|--------------------------|
|--------------------------|--------------------------|
|--------------------------|--------------------------|


|-----------------------------|-----------------------------|
|-----------------------------|-----------------------------|
|-----------------------------|-----------------------------|
|-----------------------------|-----------------------------|
|-(8)---2-5-2-2-2-2--6S===5S6-|-(6)---1-1-1S4-4-4S3-3-3S1-1-|
|-(8)---0-3-0-0-0-0--6S===5S6-|-(6)---1-1-1S4-4-4S3-3-3S1-1-|
|
|-10--------------------------|--9--------------------------|
|-13b15-------------13b15-----|-12b14-----------------------|
|-----------------------------|-----------------------------|
|-----------------------------|-----------------------------|
|-----------------------------|-----------------------------|
|-----------------------------|-----------------------------|


|-------------------------------|--------------------------|
|-------------------------------|--------------------------|
|-------------------------------|--------------------------|
|-------------------------------|--------------------------|
|--2-----2-5-2-2--2-----2-6S5S6-|-(6)---2-5-2-2-2-2--6S5S8-|
|--0-----0-3-0-0--0-----0-6S5S6-|-(6)---0-3-0-0-0-0--6S5S8-|
|
|-12-------------12-------------|-14----------------14-----|
|-15b17==========15b17==========|=17b19--------------------|
|-------------------------------|--------------------------|
|-------------------------------|--------------------------|
|-------------------------------|--------------------------|
|-------------------------------|--------------------------|


|-----------------------------|---------------------------------|
|-----------------------------|---------------------------------|
|-----------------------------|---------------------------------|
|-----------------------------|---------------------------------|
|-(8)---2-5-2-2--2----2-6S5S6-|-(6)---1-1-1S4-4--4S===3-3-3S1-1-|
|-(8)---0-3-0-0--0----0-6S5S6-|-(6)---1-1-1S4-4--4S===3-3-3S1-1-|
|
|-15------------15------------|-18--------------18--------------|
|-17b19---------17b19---------|-21b23-----------21b23-----------|
|-----------------------------|---------------------------------|
|-----------------------------|---------------------------------|
|-----------------------------|---------------------------------|
|-----------------------------|---------------------------------|


|--------------------------|-----------------------------------|
|--------------------------|-----------------------------------|
|--------------------------|-----------------------------------|
|--------------------------|-----------------------------------|
|--2-----2-5-2-2-2-2-6S5S6-|-(6)----2---5--2-2--2------2-6S5S8-|
|--0-----0-3-0-0-0-0-6S5S6-|-(6)----0---3--0-0--0------0-6S5S8-|
|
|                                       TP
|--------------------------|-----------------------------------|
|-22b24====================|=20b22====(20)-----20pb22==========|
|--------------------------|-----------------------------------|
|--------------------------|-----------------------------------|
|--------------------------|-----------------------------------|
|--------------------------|-----------------------------------|


|----------------------------------------|----------------------------|
|----------------------------------------|----------------------------|
|----------------------------------------|----------------------------|
|----------------------------------------|----------------------------|
|-(8)------2--5-----2-----2----2-2-6S5S6-|-(6)-1-1-1S4-4-4S3-3-3S1-1--|
|-(8)------0--3-----0-----0----0-0-6S5S6-|-(6)-1-1-1S4-4-4S3-3-3S1-1--|
|
|----------------------------------------|----------------------------|
|-22b24-20---22p20p18-21p19p17-----------|----------------------------|
|----------------------------------------|----------------------------|
|----------------------------------------|----------------------------|
|----------------------------------------|----------------------------|
|----------------------------------------|----------------------------|


|------------------------------------------------------------------------------------------------|
|------------------------------------------------------------------------------------------------|
|------------------------------------------------------------------------------------------------|
|------------------------------------------------------------------------------------------------|
|-2---------------2---------5-------2-------2---------2---------------2---------6S======5S======6|
|-0---------------0---------3-------0-------0---------0---------------0---------6S======5S======6|
|
|-(15)(17)(18)(17)(15)-(14)-(15)(17)(18)(17)(15)-(14)-(15)(17)(18)(17)(15)-(14)-|
|--17h=19h=20p=19p=17\--16---17h=19h=20p=19p=17\--16---17h=19h=20p=19p=17\--16--|
|-------------------------------------------------------------------------------|
|-------------------------------------------------------------------------------|
|-------------------------------------------------------------------------------|
|-------------------------------------------------------------------------------|

(15)(17)(18)(17)(15)-(14)-|
-17h=19h=20p=19p=17\--16--|
--------------------------|
--------------------------|
--------------------------|
--------------------------|

|---------------------|---------------------|
|---------------------|---------------------|
|---------------------|---------------------|
|---------------------|---------------------|
|-6-2-5-2-2-2-2-6S5S8-|-8-2-5-2-2-2-2-6S5S6-|
|-6-0-3-0-0-0-0-6S5S8-|-8-0-3-0-0-0-0-6S5S6-|
|
|---------------------|---------------------|
|---------------------|---------------------|
|---------------------|---------------------|
|---------------------|---------------------|
|---------------------|---------------------|
|---------------------|---------------------|


|---------------------------|---------------------|
|---------------------------|---------------------|
|---------------------------|---------------------|
|---------------------------|---------------------|
|-(6)-1-1-1S4-4-4S3-3-3S1-1-|-2-2-5-2-2-2-2-6S5S6-|
|-(6)-1-1-1S4-4-4S3-3-3S1-1-|-0-0-3-0-0-0-0-6S5S6-|
|
|---------------------------|---------------------|
|---------------------------|---------------------|
|---------------------------|---------------------|
|---------------------------|---------------------|
|---------------------------|---------------------|
|---------------------------|---------------------|


|-----------------------|---------------------*|
|-----------------------|---------------------*|
|-----------------------|---------------------*|
|-----------------------|---------------------*|
|-(6)-2-5-2-2-2-2-6S5S8-|-8-2-5-2-2-2-2-6S5S6-*|
|-(6)-0-3-0-0-0-0-6S5S8-|-8-0-3-0-0-0-0-6S5S6-*|
|
|-----------------------|---------------------*|
|-----------------------|---------------------*|
|-----------------------|---------------------*|
|-----------------------|---------------------*|
|-----------------------|---------------------*|
|-----------------------|---------------------*|
comments
We did not receive enough feedback on this tab! Please rate:
print report bad tab
1 2 3 4 5
I want to post or [tab]
guest
You may want to rate the tab now too:
select rating
Please do not post tabs as comments. Select "correction" instead!