Oops, an error
Loading. Please wait.

O Yeh Bass Tab

ver2
ver2

Whole song

More versions @911Tabs.com
57 views 1 this week
no commentswrite comment
1 2 3 4 5
please rate
add to favorites launch autoscroll
font size
0
reset
Autoscroll
+/-
esc
set tempo
stop
Contributor
Difficulty
intermediate
WARNING: You are trying to view
                                    content from Ultimate-Guitar.com
                                    in an unauthorized application,
                                    which is prohibited.

                                    Please use an official Ultimate
                                    Guitar Tabs application for iPhone,
                                    iPad or Android to access legitimate
                                    chords, guitar, bass, and drum tabs
                                    from Ultimate-Guitar.com database.

                                    Type "ultimate guitar tabs" in Apple
                                    App Store's or Android Market's
                                    search to find the application.
Tuning: Standard ( E A D G )

Intro:
G|----------------------------------------|
D|----------------------------------------|
A|-4h5/6h4--------------------------------|
E|----------------------------------------|

Verse:
G|----------------------------------------|
D|----------------------------------------|
A|-------4444h5/6h4-----------------------|
E|-00000------------44444-22222-----------|

End of Verse 2:
Verse:
G|----------------------------------------|
D|----------------------------------------|
A|-------4444h5/6h4-----------------------|
E|-00000----------------------------------|


Chorus: (note change in timing pattern)
G|----------------------------------------|
D|----------------------------------------|
A|---------4-4-4-4------------------------|
E|-0-0-0-0---------4-4-4-4-2-2-2-2--------|

Bridge:
  Sweet candy
G|----------------------------------------|
D|----------------------------------------|
A|----------------------------------------|
E|-5-5-5--5-5-5-53--0-0-0---0-0-0-0-0-----|

  Just give me some sweet candy
G|----------------------------------------|
D|----------------------------------------|
A|----------------------------------------|
E|-5-5-5--5-5-5-53--0-0-0---0-03/7--------|

  You make me feel oh baby
G|----------------------------------------|
D|----------------------------------------|
A|----------------------------------------|
E|-5-5-5--5-5-5-53--0-0-0---0-0-0-0-0-----|

Bass Solo/Outro - play till end
G|------------------------------------------------------------------|
D|------------------------------------------------------------------|
A|-4h5/6h4-------4444h5/6h4-----------------4444h5/6h4--------------|
E|---------000003----------4444422222-000003----------4444422222----|


The sequence is:
Intro
Verse x3
Chorus x2
Verse x2
End of Verse 2
Chorus x4
Bridge
Chorus x 4
Outro

Tabbed by Tim (zichy1@hotmail.com)
comments
We did not receive enough feedback on this tab! Please rate:
1 2 3 4 5
I want to post or [tab]
guest
You may want to rate the tab now too:
select rating
Please do not post tabs as comments. Select "correction" instead!