Oops, an error
Loading. Please wait.

Dulce Soledad Tab

25,056 views 42 this week
no commentswrite comment
1 2 3 4 5
excellent!
x 2
add to favorites launch autoscroll
font size
0
reset
Autoscroll
+/-
esc
set tempo
stop
Contributor
WARNING: You are trying to view
                                    content from Ultimate-Guitar.com
                                    in an unauthorized application,
                                    which is prohibited.

                                    Please use an official Ultimate
                                    Guitar Tabs application for iPhone,
                                    iPad or Android to access legitimate
                                    chords, guitar, bass, and drum tabs
                                    from Ultimate-Guitar.com database.

                                    Type "ultimate guitar tabs" in Apple
                                    App Store's or Android Market's
                                    search to find the application.
checa como se escucha; http://www.youtube.com/watch?v=CCRcafTG97c

Pista 1
     W                 
E||-------------------|
B||-------------------|
G||--6----------------|
D||-------------------|
A||-------------------|
E||-------------------|


  E  E  E  E  E  E  E  E   
--------------------------|
--------------------------|
--------L--4--6--4--2--1--|
--------------------------|
--------------------------|
--------------------------|



  S S E  E  E   H         
-------------------------|
-------------------------|
--1-1-2--1--2S--4--------|
-------------------------|
-------------------------|
-------------------------|


  W                 
-------------------|
-------------------|
--6----------------|
-------------------|
-------------------|
-------------------|


  E  E  E  E  E  E   E  E         
---------------------------|-----|
---------------------------|-----|
-----4--6--4--2--4S--1-----|-----|
---------------------------|-----|
---------------------------|-----|
---------------------------|-----|


  E  E  E  E  E  E  E   E   
---------------------------|
---------------------------|
--------L--1--2--1--2S--4--|
---------------------------|
---------------------------|
---------------------------|


-------------------|-------------------|
-------------------|-------------------|
-------------------|-------------------|
-------------------|-------------------|
-------------------|-------------------|
-------------------|-------------------|


-------------------|-------------------|
-------------------|-------------------|
-------------------|-------------------|
-------------------|-------------------|
-------------------|-------------------|
-------------------|-------------------|


-------------------|-------------------|
-------------------|-------------------|
-------------------|-------------------|
-------------------|-------------------|
-------------------|-------------------|
-------------------|-------------------|


                      W                 
-------------------|-------------------|
-------------------|-------------------|
-------------------|--6----------------|
-------------------|-------------------|
-------------------|-------------------|
-------------------|-------------------|


  E  E  E  E  E  E  E  E   
--------------------------|
--------------------------|
--------L--4--6--4--2--1--|
--------------------------|
--------------------------|
--------------------------|


  W                 
-------------------|
-------------------|
--L----------------|
-------------------|
-------------------|
-------------------|


  S S E  E  E   H         
-------------------------|
-------------------------|
--1-1-2--1--2S--4--------|
-------------------------|
-------------------------|
-------------------------|


  W                 
-------------------|
-------------------|
--6----------------|
-------------------|
-------------------|
-------------------|


  E  E  E  E  E  E   E  E         
---------------------------|-----|
---------------------------|-----|
--L--4--6--4--2--4S--1-----|-----|
---------------------------|-----|
---------------------------|-----|
---------------------------|-----|


  E  E  S S E  E  E   E  E   
----------------------------|
----------------------------|
-----L--1-1-2--1--2S--4-----|
----------------------------|
----------------------------|
----------------------------|


  W                 
-------------------|
-------------------|
--6----------------|
-------------------|
-------------------|
-------------------|


  E  E  E  E  E  E   E  E         
---------------------------|-----|
---------------------------|-----|
--L--4--6--4--2--4S--1-----|-----|
---------------------------|-----|
---------------------------|-----|
---------------------------|-----|


  H        E  E  Q             
----------------------|-------|
----------------------|-------|
--L--------1--2--4----|-------|
----------------------|-------|
----------------------|-------|
----------------------|-------|


  H        E  E  E  E         
-----------------------|-----|
-----------------------|-----|
--L--------2--4--6-----|-----|
-----------------------|-----|
-----------------------|-----|
-----------------------|-----|


  W                 
-------------------|
-------------------|
--L----------------|
-------------------|
-------------------|
-------------------|


  PM PM PM PM PM PM PM PM  
  E  E  E  E  E  E  E  E   
--------------------------|
--5--5--5--5--5--5--5--5--|
--6--6--6--6--6--6--6--6--|
--6--6--6--6--6--6--6--6--|
--4--4--4--4--4--4--4--4--|
--------------------------|


  PM PM PM PM              
  E  E  E  E  E  E  E  E   
--------------------------|
--5--5--5--5--5--5--5--5--|
--6--6--6--6--6--6--6--6--|
--6--6--6--6--6--6--6--6--|
--4--4--4--4--4--4--4--4--|
--------------------------|


  PM PM PM PM PM PM PM PM  
  E  E  E  E  E  E  E  E   
--------------------------|
--5--5--5--5--5--5--5--5--|
--6--6--6--6--6--6--6--6--|
--6--6--6--6--6--6--6--6--|
--4--4--4--4--4--4--4--4--|
--------------------------|


  PM PM                    
  E  E  E  E  E  E  E  E   
--------------------4--4--|
--5--5--------5--5--------|
--6--6--4--4--------------|
--6--6--------------------|
--4--4--------------------|
--------------------------|


  PM PM PM PM PM PM PM PM  
  E  E  E  E  E  E  E  E   
--------------------------|
--5--5--5--5--5--5--5--5--|
--6--6--6--6--6--6--6--6--|
--6--6--6--6--6--6--6--6--|
--4--4--4--4--4--4--4--4--|
--------------------------|


  PM PM PM PM              
  E  E  E  E  E  E  E  E   
--------------------------|
--5--5--5--5--5--5--5--5--|
--6--6--6--6--6--6--6--6--|
--6--6--6--6--6--6--6--6--|
--4--4--4--4--4--4--4--4--|
--------------------------|


  PM PM PM PM PM PM PM PM  
  E  E  E  E  E  E  E  E   
--------------------------|
--5--5--5--5--5--5--5--5--|
--6--6--6--6--6--6--6--6--|
--6--6--6--6--6--6--6--6--|
--4--4--4--4--4--4--4--4--|
--------------------------|


  PM PM                    
  E  E  E  E  E  E  E  E   
--------------------4--4--|
--5--5--------5--5--------|
--6--6--4--4--------------|
--6--6--------------------|
--4--4--------------------|
--------------------------|


  PM PM PM PM PM PM PM PM  
  E  E  E  E  E  E  E  E   
--------------------------|
--5--5--5--5--5--5--5--5--|
--6--6--6--6--6--6--6--6--|
--6--6--6--6--6--6--6--6--|
--4--4--4--4--4--4--4--4--|
--------------------------|


  PM PM PM PM              
  E  E  E  E  E  E  E  E   
--------------------------|
--5--5--5--5--5--5--5--5--|
--6--6--6--6--6--6--6--6--|
--6--6--6--6--6--6--6--6--|
--4--4--4--4--4--4--4--4--|
--------------------------|


  PM PM PM PM PM PM PM PM  
  E  E  E  E  E  E  E  E   
--------------------------|
--5--5--5--5--5--5--5--5--|
--6--6--6--6--6--6--6--6--|
--6--6--6--6--6--6--6--6--|
--4--4--4--4--4--4--4--4--|
--------------------------|


  PM PM                    
  E  E  E  E  E  E  E  E   
--------------------4--4--|
--5--5--------5--5--------|
--6--6--4--4--------------|
--6--6--------------------|
--4--4--------------------|
--------------------------|


  PM PM PM PM PM PM PM PM  
  E  E  E  E  E  E  E  E   
--------------------------|
--5--5--5--5--5--5--5--5--|
--6--6--6--6--6--6--6--6--|
--6--6--6--6--6--6--6--6--|
--4--4--4--4--4--4--4--4--|
--------------------------|


  PM PM PM PM              
  E  E  E  E  E  E  E  E   
--------------------------|
--5--5--5--5--5--5--5--5--|
--6--6--6--6--6--6--6--6--|
--6--6--6--6--6--6--6--6--|
--4--4--4--4--4--4--4--4--|
--------------------------|


  E  E  E  E  E  E  E  E   
--------------------------|
--5--5--5--5--5--5--5--5--|
--6--6--6--6--6--6--6--6--|
--6--6--6--6--6--6--6--6--|
--4--4--4--4--4--4--4--4--|
--------------------------|


  E  E  E  E  E  Q    E   
-------------------------|
-------------------------|
-----------2--6--4-------|
--2--4--5----------------|
-------------------------|
-------------------------|


  W                 
-------------------|
-------------------|
--L----------------|
-------------------|
-------------------|
-------------------|


  E  E  E  E  E  Q    E   
-------------------------|
-------------------------|
-----------2--6--4-------|
--2--4--5----------------|
-------------------------|
-------------------------|


  W                 
-------------------|
-------------------|
--L----------------|
-------------------|
-------------------|
-------------------|


  E  E  E  E  E  Q    E   
-------------------------|
-------------------------|
-----------2--7--6-------|
--2--4--5----------------|
-------------------------|
-------------------------|


  W                 
-------------------|
-------------------|
--L----------------|
-------------------|
-------------------|
-------------------|


  E  E  E  E  E  Q    E   
-------------------------|
-------------------------|
-----------2--7--6-------|
--2--4--5----------------|
-------------------------|
-------------------------|


  H        H         
--------------------|
--------------------|
--7--------4--------|
--------------------|
--------------------|
--------------------|


  E  E  E  E  E  Q    E   
-------------------------|
-------------------------|
-----------2--6--4-------|
--2--4--5----------------|
-------------------------|
-------------------------|


  W                 
-------------------|
-------------------|
--L----------------|
-------------------|
-------------------|
-------------------|


  E  E  E  E  E  Q    E   
-------------------------|
-------------------------|
-----------2--6--4-------|
--2--4--5----------------|
-------------------------|
-------------------------|


  W                 
-------------------|
-------------------|
--L----------------|
-------------------|
-------------------|
-------------------|


  E  E  E  E  E  Q    E   
-------------------------|
-------------------------|
-----------2--7--6-------|
--2--4--5----------------|
-------------------------|
-------------------------|


  Q    Q    H           H        H         
---------------------|--------------------|
---------------------|--------------------|
------------7--------|--6--------7--------|
---------------------|--------------------|
---------------------|--------------------|
---------------------|--------------------|


  W                   W                 
-------------------|-------------------|
-------------------|-------------------|
--9----------------|--6----------------|
-------------------|-------------------|
-------------------|-------------------|
-------------------|-------------------|


  E  E  E  E  E  E  E  E   
--------------------------|
--------------------------|
--------L--4--6--4--2--1--|
--------------------------|
--------------------------|
--------------------------|


  W                 
-------------------|
-------------------|
--L----------------|
-------------------|
-------------------|
-------------------|


  S S E  E  E   H         
-------------------------|
-------------------------|
--1-1-2--1--2S--4--------|
-------------------------|
-------------------------|
-------------------------|


  W                 
-------------------|
-------------------|
--6----------------|
-------------------|
-------------------|
-------------------|


  E  E  E  E  E  E   E  E         
---------------------------|-----|
---------------------------|-----|
--L--4--6--4--2--4S--1-----|-----|
---------------------------|-----|
---------------------------|-----|
---------------------------|-----|


  E  E  S S E  E  E   E  E               
----------------------------|-----|-----|
----------------------------|-----|-----|
-----L--1-1-2--1--2S--4-----|-----|-----|
----------------------------|-----|-----|
----------------------------|-----|-----|
----------------------------|-----|-----|


-----|-----|-----|-----|
-----|-----|-----|-----|
-----|-----|-----|-----|
-----|-----|-----|-----|
-----|-----|-----|-----|
-----|-----|-----|-----|


  PM PM PM PM PM PM PM PM  
  E  E  E  E  E  E  E  E   
--------------------------|
--2--2--2--2--2--2--2--2--|
--2--2--2--2--2--2--2--2--|
--2--2--2--2--2--2--2--2--|
--0--0--0--0--0--0--0--0--|
--------------------------|


  PM PM PM PM PM PM PM PM  
  E  E  E  E  E  E  E  E   
--------------------------|
--2--2--2--2--2--2--2--2--|
--2--2--2--2--2--2--2--2--|
--2--2--2--2--2--2--2--2--|
--0--0--0--0--0--0--0--0--|
--------------------------|


  PM PM PM PM PM PM PM PM  
  E  E  E  E  E  E  E  E   
--------------------------|
--5--5--5--5--5--5--5--5--|
--6--6--6--6--6--6--6--6--|
--6--6--6--6--6--6--6--6--|
--4--4--4--4--4--4--4--4--|
--------------------------|


  PM PM PM PM PM PM PM PM  
  E  E  E  E  E  E  E  E   
--------------------------|
--5--5--5--5--5--5--5--5--|
--6--6--6--6--6--6--6--6--|
--6--6--6--6--6--6--6--6--|
--4--4--4--4--4--4--4--4--|
--------------------------|


  ^                                     
  W                   W                 
-------------------|-------------------|
--3----------------|-------------------|
--4----------------|--L----------------|
--4----------------|-------------------|
--2----------------|-------------------|
-------------------|-------------------|


  ^                   ^                 
  W                   W                 
-------------------|-------------------|
--5----------------|--6----------------|
--6----------------|--7----------------|
--6----------------|--7----------------|
--4----------------|--5----------------|
-------------------|-------------------|


  PM PM PM PM PM PM PM PM  
  E  E  E  E  E  E  E  E   
--------------------------|
--5--5--5--5--5--5--5--5--|
--6--6--6--6--6--6--6--6--|
--6--6--6--6--6--6--6--6--|
--4--4--4--4--4--4--4--4--|
--------------------------|


  PM PM PM PM              
  E  E  E  E  E  E  E  E   
--------------------------|
--5--5--5--5--5--5--5--5--|
--6--6--6--6--6--6--6--6--|
--6--6--6--6--6--6--6--6--|
--4--4--4--4--4--4--4--4--|
--------------------------|


  PM PM PM PM PM PM PM PM  
  E  E  E  E  E  E  E  E   
--------------------------|
--5--5--5--5--5--5--5--5--|
--6--6--6--6--6--6--6--6--|
--6--6--6--6--6--6--6--6--|
--4--4--4--4--4--4--4--4--|
--------------------------|


  PM PM                    
  E  E  E  E  E  E  E  E   
--------------------4--4--|
--5--5--------5--5--------|
--6--6--4--4--------------|
--6--6--------------------|
--4--4--------------------|
--------------------------|


  PM PM PM PM PM PM PM PM  
  E  E  E  E  E  E  E  E   
--------------------------|
--5--5--5--5--5--5--5--5--|
--6--6--6--6--6--6--6--6--|
--6--6--6--6--6--6--6--6--|
--4--4--4--4--4--4--4--4--|
--------------------------|


  PM PM PM PM              
  E  E  E  E  E  E  E  E   
--------------------------|
--5--5--5--5--5--5--5--5--|
--6--6--6--6--6--6--6--6--|
--6--6--6--6--6--6--6--6--|
--4--4--4--4--4--4--4--4--|
--------------------------|


  PM PM PM PM PM PM PM PM  
  E  E  E  E  E  E  E  E   
--------------------------|
--5--5--5--5--5--5--5--5--|
--6--6--6--6--6--6--6--6--|
--6--6--6--6--6--6--6--6--|
--4--4--4--4--4--4--4--4--|
--------------------------|


  PM PM                    
  E  E  E  E  E  E  E  E   
--------------------4--4--|
--5--5--------5--5--------|
--6--6--4--4--------------|
--6--6--------------------|
--4--4--------------------|
--------------------------|


  PM PM PM PM PM PM PM PM  
  E  E  E  E  E  E  E  E   
--------------------------|
--5--5--5--5--5--5--5--5--|
--6--6--6--6--6--6--6--6--|
--6--6--6--6--6--6--6--6--|
--4--4--4--4--4--4--4--4--|
--------------------------|


  PM PM PM PM              
  E  E  E  E  E  E  E  E   
--------------------------|
--5--5--5--5--5--5--5--5--|
--6--6--6--6--6--6--6--6--|
--6--6--6--6--6--6--6--6--|
--4--4--4--4--4--4--4--4--|
--------------------------|


  PM PM PM PM PM PM PM PM  
  E  E  E  E  E  E  E  E   
--------------------------|
--5--5--5--5--5--5--5--5--|
--6--6--6--6--6--6--6--6--|
--6--6--6--6--6--6--6--6--|
--4--4--4--4--4--4--4--4--|
--------------------------|


  PM PM                    
  E  E  E  E  E  E  E  E   
--------------------4--4--|
--5--5--------5--5--------|
--6--6--4--4--------------|
--6--6--------------------|
--4--4--------------------|
--------------------------|


  PM PM PM PM PM PM PM PM  
  E  E  E  E  E  E  E  E   
--------------------------|
--5--5--5--5--5--5--5--5--|
--6--6--6--6--6--6--6--6--|
--6--6--6--6--6--6--6--6--|
--4--4--4--4--4--4--4--4--|
--------------------------|


  PM PM PM PM              
  E  E  E  E  E  E  E  E   
--------------------------|
--5--5--5--5--5--5--5--5--|
--6--6--6--6--6--6--6--6--|
--6--6--6--6--6--6--6--6--|
--4--4--4--4--4--4--4--4--|
--------------------------|


  E  E  E  E  E  E  E  E   
--------------------------|
--5--5--5--5--5--5--5--5--|
--6--6--6--6--6--6--6--6--|
--6--6--6--6--6--6--6--6--|
--4--4--4--4--4--4--4--4--|
--------------------------|


  E  E  E  E  E  E  E  E   
--------------------------|
--5--5--5--5--5--5--5--5--|
--6--6--6--6--6--6--6--6--|
--6--6--6--6--6--6--6--6--|
--4--4--4--4--4--4--4--4--|
--------------------------|


  E  E  E  E  E  Q    E   
-------------------------|
-------------------------|
-----------2--6--4-------|
--2--4--5----------------|
-------------------------|
-------------------------|


  W                 
-------------------|
-------------------|
--L----------------|
-------------------|
-------------------|
-------------------|


  E  E  E  E  E  Q    E   
-------------------------|
-------------------------|
-----------2--6--4-------|
--2--4--5----------------|
-------------------------|
-------------------------|


  W                 
-------------------|
-------------------|
--L----------------|
-------------------|
-------------------|
-------------------|


  E  E  E  E  E  Q    E   
-------------------------|
-------------------------|
-----------2--7--6-------|
--2--4--5----------------|
-------------------------|
-------------------------|


  W                 
-------------------|
-------------------|
--L----------------|
-------------------|
-------------------|
-------------------|


  E  E  E  E  E  Q    E   
-------------------------|
-------------------------|
-----------2--7--6-------|
--2--4--5----------------|
-------------------------|
-------------------------|


  H        H         
--------------------|
--------------------|
--7--------4--------|
--------------------|
--------------------|
--------------------|


  E  E  E  E  E  Q    E   
-------------------------|
-------------------------|
-----------2--6--4-------|
--2--4--5----------------|
-------------------------|
-------------------------|


  W                 
-------------------|
-------------------|
--L----------------|
-------------------|
-------------------|
-------------------|


  E  E  E  E  E  Q    E   
-------------------------|
-------------------------|
-----------2--6--4-------|
--2--4--5----------------|
-------------------------|
-------------------------|


  W                 
-------------------|
-------------------|
--L----------------|
-------------------|
-------------------|
-------------------|


  E  E  E  E  E  Q    E   
-------------------------|
-------------------------|
-----------2--7--6-------|
--2--4--5----------------|
-------------------------|
-------------------------|


  Q    Q    H           H        H         
---------------------|--------------------|
---------------------|--------------------|
-------L----7--------|--6--------7--------|
---------------------|--------------------|
---------------------|--------------------|
---------------------|--------------------|


  W                   W                 
-------------------|-------------------|
-------------------|--2----------------|
--9----------------|--2----------------|
-------------------|--2----------------|
-------------------|--0----------------|
-------------------|-------------------|


  W                   W                 
-------------------|-------------------|
-------------------|--5----------------|
--L----------------|--6----------------|
-------------------|--6----------------|
-------------------|--4----------------|
-------------------|-------------------|


  W                   W                 
-------------------|-------------------|
-------------------|--2----------------|
--L----------------|--2----------------|
-------------------|--2----------------|
-------------------|--0----------------|
-------------------|-------------------|


  W                   W                 
-------------------|-------------------|
-------------------|--5----------------|
--L----------------|--6----------------|
-------------------|--6----------------|
-------------------|--4----------------|
-------------------|-------------------|


  E  E  E  E  E  E  E  E   
--------------------------|
--------------------------|
--4--2--4--L--6--4--6--L--|
--------------------------|
--------------------------|
--------------------------|


  E  E  E  E  E  Q    E   
-------------------------|
-------------------------|
--7--6--7--L--6--4----L--|
-------------------------|
-------------------------|
-------------------------|


  E  E  E  E  E  E  E  E   
--------------------------|
--------------------------|
--4--2--4--L--6--4--6--L--|
--------------------------|
--------------------------|
--------------------------|


  E  E  E  E  E  Q    E   
-------------------------|
-------------------------|
--7--6--7--L--6--4----L--|
-------------------------|
-------------------------|
-------------------------|


  E  E  E  E  E  E  E  E   
--------------------------|
--------------------------|
--6--4--6--L--7--6--7--L--|
--------------------------|
--------------------------|
--------------------------|


  E  E  E  E  E  Q    E   
-------------------------|
-------------------------|
--9--7--9--L--7--6-------|
-------------------------|
-------------------------|
-------------------------|


   E  E  E  H        E   
------------------------|
------------------------|
--11--9--7--9-----------|
------------------------|
------------------------|
------------------------|


  H        H           W                  
--------------------|-------------------||
--------------------|-------------------||
--6--------4--------|--2----------------||
--------------------|-------------------||
--------------------|-------------------||
--------------------|-------------------||




Duration Legend
---------------
W - whole
H - half
Q - quarter
E - 8th
S - 16th
T - 32nd
X - 64th
. - note dotted
|-n-|  - n-tuplets


Tablature Legend
----------------
L - tied note
x - dead note
g - grace note
(n) - ghost note
> - accentuded note
NH - natural harmonic
AH - artificial harmonic
TH - tapped harmonic
SH - semi harmonic
PH - pitch harmonic
h - hammer on
p - pull off
b - bend
br - bendRelease
pb - preBend
pbr - preBendRelease
brb - bendReleaseBend
\n/ - tremolo bar dip
\n - tremolo bar dive
-/n - tremolo bar Release up
/n\ - tremolo bar inverted dip
/n - tremolo bar return
-\n - tremolo bar Release down
S - shift slide
s - legato slide
/ -  slide into from below or out of upwards
\ -  slide into from above or out of downwards
~ - vibrato
W - wide vibrato
tr - trill
TP - tremolo picking
T - tapping
S - slap
P - pop
< - fade in
^ - brush up
v - brush down
comments
We did not receive enough feedback on this tab! Please rate:
print report bad tab
1 2 3 4 5
I want to post or [tab]
guest
You may want to rate the tab now too:
select rating
Please do not post tabs as comments. Select "correction" instead!