Oops, an error
Loading. Please wait.

Enemigo Tab

ver1
ver1

Whole song

Interactive

More versions @911Tabs.com
9,038 views 31 this week
no commentswrite comment
1 2 3 4 5
excellent!
x 1
Autoscroll
+/-
esc
set tempo
stop
Contributor
Difficulty
novice
Hey! There's an official Ultimate Guitar app which is ideal
for learning songs when you're away from computer. Get the app
WARNING: You are trying to view
                                    content from Ultimate-Guitar.com
                                    in an unauthorized application,
                                    which is prohibited.

                                    Please use an official Ultimate
                                    Guitar Tabs application for iPhone,
                                    iPad or Android to access legitimate
                                    chords, guitar, bass, and drum tabs
                                    from Ultimate-Guitar.com database.

                                    Type "ultimate guitar tabs" in Apple
                                    App Store's or Android Market's
                                    search to find the application.
-------## Tablatura de mi versión para enemigo de enjambre,
por Fernando Arroyo, checa mi
cover, para mayor referencia de la tab, en
http://www.youtube.com/watch?v=GRBtP85QaiY&feature=colike
Comentarios o sugerencias a fergto78@hotmail.com
http://www.facebook.com/fergto78
http://twitter.com/#!/fergto78 -------##

PARA MEJOR VERSION DE LA TAB CHECAR MI VIDEO EN YOUTUBE, AHI VIENE UN LINK
PARA BAJARLO EN WORD, SALUDOS!

Afinación Estándar

Intro y verso 1:

Guitarra 1
e|--------|----------------|-------------------------------|
B|--------|----------------|-------------------------------|
G|--------|.-(4-tiempos)--.|.-----------------3-(tiempos)--|
D|--------|.--------------.|.------------------------------|
A|-7---7--|---7----7----7--|---7------7----7---7---5---5---|
E|---7----|-7---7-----7----|-7---7--5---5----5-------5-----|

-------------------------------|
-------------------------------|
------------------------------.|
------------------------------.|
----5----6---6-----6----7----7-|
--5---5----5-----5---5-----7---|


(Por si les interesa, las notas del órgano arregladas para guitarra,
 entra al 4to tiempo del intro)
|--------------------------|---------------------|
|--8~---14~---7~---10~-----|--8~---14~---12~~----|
|.-9~---14~---7~---8~-----.|--9~---14~---12~~----|
|.------------------------.|---------------------|
|--------------------------|---------------------|
|------(3-tiempos)---------|-------fergto78------|

Puente:

Guitarra 1
|------------------------3--------3-----------------3---------|
|------------------------3----------3----------3------3-------|
|------------------------0-----0------0------0---0------0-----|
|------------------------0--------------0-----------------0---|
|----7------7----7---7---0------------------------------------|
|--7---7--5---5----5-----3------------------------------------|

                         Guitarra 2
                 |-------3------------------------------------|
                 |-------3------------------------------------|
                 |-------0---dejar sonar acorde---------------|
                 |-------0------------------------------------|
                 |-------0------------------------------------|
                 |-------3------------------------------------|

Pre coro 1:

Guitarra 1
|---------------------------------------------------------------|
|----15---15---15---15---14---14---14---14----------------------|
|.-------------------------------------------16---16---16---16--|
|.--------------------------------------------------------------|
|---------------------------------------------------------------|
|------------------------------(2 tiempos)----------------------|

-14---14---14---14------|
------------------------|
-----------------------.|
-----------------------.|
------------------------|
------------------------|

Guitarra 2
|-------------------------------------------------------------|
|--15---15---15---15---14---14---14---14---15---15---15---15--|
|.-14---14---14---14---14---14---14---14---16---16---16---16--|
|.------------------------------------------------------------|
|-------------------------------------------------------------|
|------------------------------(2 tiempos)--------------------|

--------------------------|
--14---14---14---14---/---|
--14---14---14---14---/--.|
-------------------------.|
--------------------------|
--------------------------|
Guitarra 2 termina el pre coro con
|-----------------------|
|---12-dejar sonar------|
|---12------------------|
|-----------------------|
|-----------------------|
|-----------------------|

Puente pre coro 1:

Guitarra 1
|--------------------------|
|----15--------------------|
|.-------14--16-----------.|
|.--------------16-16-----.|
|--------------------------|
|----(8 tiempos)-----------|

Guitarra 2 entra al 5to tiempo con:
|--------------------------|
|--------------------------|
|.----11------------------.|
|.-------11--12-----------.|
|---------------14-14------|
|----(4 tiempos)-----------|

Puente pre coro 2:

Guitarra 1
|-----------------------------------------------------------|
|-----------------------------------------------------------|
|-----------------------------------------------------------|
|-12-12-14-14/16--12-12-14-14/16--12-12-14---12-12-14-14/16-|
|-----------------------------------------------------------|
|-----------------------------------------------------------|

----------------------------|
----------------------------|
----------------------------|
-12-12-14-14/16--12-12-14---|
----------------------------|
----------------------------|

Guitarra 2
|------------------------------------------------------------|
|------------------------------------------------------------|
|--7---------------------7--------7-----------8--------------|
|--7---------------------7--------7-----------7--------------|
|--5---------------------5--------5-----------6--------------|
|------------------------------------------------------------|

---------------------------|
---------------------------|
------8---------8----------|
------7---------7----------|
------6---------6----------|
---------------------------|
Coro:

Guitarra 1
|-----------------------------------------------------------|
|-----------------------------------------------------------|
|-----------------------------------------------------------|
|-----12/14-----12/14-----12-------14/16----14/16-----14----|
|--10--------10--------10-------12-------12--------12-------|
|-----------------------------------------------------------|

Guitarra 2
|-----------------------------------------------------------|
|-----------------------------------------------------------|
|-----------------------------------------------------------|
|--5------5-------5------5--------7-----7-------7-------7---|
|--5------5-------5------5--------7-----7-------7-------7---|
|--3------3-------3------3--------5-----5-------5-------5---|

Coro (continuación):

Guitarra 1
|-----------------------------------------------------------|
|-----------------------------------------------------------|
|-----------------------------------------------------------|
|-12-12-14-14/16--12-12-14-14/16--12-12-14---12-12-14-14/16-|
|-----------------------------------------------------------|
|-----------------------------------------------------------|

----------------------------|
----------------------------|
----------------------------|
-12-12-14-14/16--12-12-14---|
----------------------------|
----------------------------|

Guitarra 2
|-----------------------------------------------------------|
|-----------------------------------------------------------|
|--7----------7----------7--------7-------------------------|
|--7----------7----------7--------7-----------7---------7---|
|--5----------5----------5--------5-----------9---------9---|
|---------------------------------------------7---------7---|

----------------------------|
----------------------------|
----------------------------|
----7--------7--------------|
----9--------9--------------|
----7--------7--------------|

Coro (continuación):

Guitarra 1
|------------------------------------------------|
|------------------------------------------------|
|------------------------------------------------|
|-----12/14-----12/14-----12-----14-/------------|
|--10--------10--------10--------12-/------------|
|------------------------------------------------|

Guitarra 2
|------------------------------------------------|
|------------------------------------------------|
|------------------------------------------------|
|--5------5-------5------5--------7-/------------|
|--5------5-------5------5--------7-/------------|
|--3------3-------3------3--------5-/------------|

Solo:
Guitarra 1

|-17-17-17-/--7-7/9---/-7--7/9-/---17-17-17---/-5-5/7--9-10~------|
|-----------------------------------------------------------------|
|-----------------------------------------------------------------|
|-----------------------------------------------------------------|
|-----------------------------------------------------------------|
|-----------------------------------------------------------------|

Guitarra 2
|-17-17-17-/--7-7/9---/-7--7/9-/---17-17-17---/-------------------|
|-----------------------------------------------5-5/7--8-10~------|
|-----------------------------------------------------------------|
|-----------------------------------------------------------------|
|-----------------------------------------------------------------|
|-----------------------------------------------------------------|

Solo (continuación):                               fergto78

Guitarra 1
|-15p14-15p14-------------------------------------------------------------|
|-------------17p15-17p15/-14h15p14----14---------------------------------|
|-----------------------------------16----16-14~---11h12/14/16~--14-------|
|--------------------------------------------------------------------16~-/|
|-------------------------------------------------------------------------|
|-------------------------------------------------------------------------|

Guitarra 2
|-------------------------------------------------------------------------|
|-5-----------7----------8--------------10------------12-----------14-----|
|-------------------------------------------------------------------------|
|-------------------------------------------------------------------------|
|-------------------------------------------------------------------------|
|-------------------------------------------------------------------------|

Solo (continuación):

Guitarra 1
|-17-15-14-15-14---14-------------------------------------------|
|----------------17---17-15-14----------------------------------|
|------------------------------16-14-/---2Fb--------------------|
|---------------------------------------------------------------|
|---------------------------------------------------------------|
|---------------------------------------------------------------|

Guitarra 2
|---------------------------------------------------------------|
|----15-----14---------14---------------------------------------|
|----------------16---------16-----14-/---2Fb-------------------|
|---------------------------------------------------------------|
|---------------------------------------------------------------|
|---------------------------------------------------------------|

Verso 2:

Guitarra 1
|----------------------------------------------------------------------|
|----------------------------------------------------------------------|
|----------------------------------------------------------------------|
|----------------------------------------------------------------------|
|-7---7----7------7----7---7---5---5-----5----6---6-----6----7----7----|
|---7----7---7--5---5----5-------5-----5---5----5-----5---5-----7------|

(notas del órgano arregladas para guitarra)
|-------------------------------------------|
|--8~---14~---7~---10~---8~---14~---12~~----|
|--9~---14~---7~---8~----9~---14~---12~~----|
|-------------------------------------------|
|-------------------------------------------|
|------------ fergto78----------------------|

Puente:

Guitarra 1
|------------------------3--------3-----------------3---------|
|------------------------3----------3----------3------3-------|
|------------------------0-----0------0------0---0------0-----|
|------------------------0--------------0-----------------0---|
|----7------7----7---7---0------------------------------------|
|--7---7--5---5----5-----3------------------------------------|

                Guitarra 2
                 |-------3------------------------------------|
                 |-------3------------------------------------|
                 |-------0---dejar sonar acorde---------------|
                 |-------0------------------------------------|
                 |-------0------------------------------------|
                 |-------3------------------------------------|

Pre coro:

Guitarra 1
|---------------------------------------------------------------|
|----15---15---15---15---14---14---14---14----------------------|
|.-------------------------------------------16---16---16---16--|
|.--------------------------------------------------------------|
|---------------------------------------------------------------|
|------------------------------(2 tiempos)----------------------|

-14---14---14---14------|
------------------------|
-----------------------.|
-----------------------.|
------------------------|
------------------------|
Guitarra 2
|-------------------------------------------------------------|
|--15---15---15---15---14---14---14---14---15---15---15---15--|
|.-14---14---14---14---14---14---14---14---16---16---16---16--|
|.------------------------------------------------------------|
|-------------------------------------------------------------|
|------------------------------(2 tiempos)--------------------|

-------------------------|
-14---14---14---14---/---|
-14---14---14---14---/--.|
------------------------.|
-------------------------|
-------------------------|
Guitarra 2 termina el pre coro con
|-----------------------|
|---12-dejar sonar------|
|---12------------------|
|-----------------------|
|-----------------------|
|-----------------------|

Puente pre coro 1:

Guitarra 1
|--------------------------|
|----15--------------------|
|.-------14--16-----------.|
|.--------------16-16-----.|
|--------------------------|
|----(8 tiempos)-----------|

Guitarra 2 entra al 5to tiempo con:
|--------------------------|
|--------------------------|
|.----11------------------.|
|.-------11--12-----------.|
|---------------14-14------|
|----(4 tiempos)-----------|

Puente pre coro 2:

Guitarra 1
|-----------------------------------------------------------|
|-----------------------------------------------------------|
|-----------------------------------------------------------|
|-12-12-14-14/16--12-12-14-14/16--12-12-14---12-12-14-14/16-|
|-----------------------------------------------------------|
|-----------------------------------------------------------|

----------------------------|
----------------------------|
----------------------------|
-12-12-14-14/16--12-12-14---|
----------------------------|
----------------------------|

Guitarra 2
|------------------------------------------------------------|
|------------------------------------------------------------|
|--7---------------------7--------7-----------8--------------|
|--7---------------------7--------7-----------7--------------|
|--5---------------------5--------5-----------6--------------|
|------------------------------------------------------------|

---------------------------|
---------------------------|
------8---------8----------|
------7---------7----------|
------6---------6----------|
---------------------------|

Coro:

Guitarra 1
|-----------------------------------------------------------------|
|-----------------------------------------------------------------|
|-----------------------------------------------------------------|
|-----12/14-----12/14-----12-------14/16----14/16-----14----------|
|--10--------10--------10-------12-------12--------12-------------|
|-----------------------------------------------------------------|

Guitarra 2
|-----------------------------------------------------------------|
|-----------------------------------------------------------------|
|-----------------------------------------------------------------|
|--5------5-------5------5--------7-----7-------7-------7---------|
|--5------5-------5------5--------7-----7-------7-------7---------|
|--3------3-------3------3--------5-----5-------5-------5---------|

Coro (continuación):

Guitarra 1
|-----------------------------------------------------------|
|-----------------------------------------------------------|
|-----------------------------------------------------------|
|-12-12-14-14/16--12-12-14-14/16--12-12-14---12-12-14-14/16-|
|-----------------------------------------------------------|
|-----------------------------------------------------------|

----------------------------|
----------------------------|
----------------------------|
-12-12-14-14/16--12-12-14---|
----------------------------|
----------------------------|

Guitarra 2
|-----------------------------------------------------------|
|-----------------------------------------------------------|
|--7----------7----------7--------7-------------------------|
|--7----------7----------7--------7-----------7---------7---|
|--5----------5----------5--------5-----------9---------9---|
|---------------------------------------------7---------7---|

----------------------------|
----------------------------|
----------------------------|
----7--------7--------------|
----9--------9--------------|
----7--------7--------------|

Coro (continuación):

Guitarra 1
|------------------------------------------------|
|------------------------------------------------|
|------------------------------------------------|
|-----12/14-----12/14-----12-----14-/------------|
|--10--------10--------10--------12-/------------|
|------------------------------------------------|

Guitarra 2
|------------------------------------------------|
|------------------------------------------------|
|------------------------------------------------|
|--5------5-------5------5--------7-/------------|
|--5------5-------5------5--------7-/------------|
|--3------3-------3------3--------5-/------------|

Puente Largo:

Guitarra 1
|--------------------------|
|----15--------------------|
|.-------14--16-----------.|
|.--------------16-16-----.|
|--------------------------|
|----(32 tiempos)----------|

Guitarra 2
|--------------------------|
|--------------------------|
|.----11------------------.|
|.-------11--12-----------.|
|---------------14-14------|
|----(32 tiempos)----------|

Puente pre coro:

Guitarra 1
|-----------------------------------------------------------|
|-----------------------------------------------------------|
|-----------------------------------------------------------|
|-12-12-14-14/16--12-12-14-14/16--12-12-14---12-12-14-14/16-|
|-----------------------------------------------------------|
|-----------------------------------------------------------|

----------------------------|
----------------------------|
----------------------------|
-12-12-14-14/16--12-12-14---|
----------------------------|
----------------------------|

Guitarra 2
|------------------------------------------------------------|
|------------------------------------------------------------|
|--7---------------------7--------7-----------8--------------|
|--7---------------------7--------7-----------7--------------|
|--5---------------------5--------5-----------6--------------|
|------------------------------------------------------------|

---------------------------|
---------------------------|
------8---------8----------|
------7---------7----------|
------6---------6----------|
---------------------------|

Coro final:

Guitarra 1
|-----------------------------------------------------------------|
|-----------------------------------------------------------------|
|-----------------------------------------------------------------|
|-----12/14-----12/14-----12-------14/16----14/16-----14----------|
|--10--------10--------10-------12-------12--------12-------------|
|-----------------------------------------------------------------|

Guitarra 2
|-----------------------------------------------------------------|
|-----------------------------------------------------------------|
|-----------------------------------------------------------------|
|--5------5-------5------5--------7-----7-------7-------7---------|
|--5------5-------5------5--------7-----7-------7-------7---------|
|--3------3-------3------3--------5-----5-------5-------5---------|

Coro final (continuación):

Guitarra 1
|-----------------------------------------------------------|
|-----------------------------------------------------------|
|-----------------------------------------------------------|
|-12-12-14-14/16--12-12-14-14/16--12-12-14---12-12-14-14/16-|
|-----------------------------------------------------------|
|-----------------------------------------------------------|

----------------------------|
----------------------------|
----------------------------|
-12-12-14-14/16--12-12-14---|
----------------------------|
----------------------------|

Guitarra 2
|-----------------------------------------------------------|
|-----------------------------------------------------------|
|--7----------7----------7--------7-------------------------|
|--7----------7----------7--------7-----------7---------7---|
|--5----------5----------5--------5-----------9---------9---|
|---------------------------------------------7---------7---|

----------------------------|
----------------------------|
----------------------------|
----7--------7--------------|
----9--------9--------------|
----7--------7--------------|

Coro final (continuación):

Guitarra 1
|-----------------------------------------------------------------|
|-----------------------------------------------------------------|
|-----------------------------------------------------------------|
|-----12/14-----12/14-----12-------14/16----14/16-----14----------|
|--10--------10--------10-------12-------12--------12-------------|
|-----------------------------------------------------------------|

Guitarra 2
|-----------------------------------------------------------------|
|-----------------------------------------------------------------|
|-----------------------------------------------------------------|
|--5------5-------5------5--------7-----7-------7-------7---------|
|--5------5-------5------5--------7-----7-------7-------7---------|
|--3------3-------3------3--------5-----5-------5-------5---------|

Coro final (continuación):                               fergto78

Guitarra 1
|-----------------------------------------------------------------------|
|-----------------------------------------------------------------------|
|-----------------------------------------11--12--11----11--------------|
|-12-12-14-14/16--12-12-14-14/16--12--14-------------14-----14-12~------|
|-----------------------------------------------------------------------|
|-----------------------------------------------------------------------|

Guitarra 2
|-----------------------------------------------------------------------|
|-----------------------------------------------------------------------|
|--7----------7----------7--------7-------------------------------------|
|--7----------7----------7--------7-----------7---------7-------7----7--|
|--5----------5----------5--------5-----------9---------9-------9----9--|
|---------------------------------------------7---------7-------7----7--|

Coro final (continuación):

Guitarra 1
|------------------------------------------------|
|------------------------------------------------|
|------------------------------------------------|
|-----12/14-----12/14-----12-----14-/------------|
|--10--------10--------10--------12-/------------|
|------------------------------------------------|

Guitarra 2
|------------------------------------------------|
|------------------------------------------------|
|------------------------------------------------|
|--5------5-------5------5--------7-/------------|
|--5------5-------5------5--------7-/------------|
|--3------3-------3------3--------5-/------------|

Outro:

Guitarra 1
|---------------------2~-------------------------|
|---------------------3~-------------------------|
|---------------------2~-------------------------|
|---------------------0--------------------------|
|---5---5-----5----------------------------------|
|-----5-----5---5--------------------------------|

Guitarra 2
|------------------------------------------------|
|---------------------7~-------------------------|
|---------------------7~-------------------------|
|---------------------7~-------------------------|
|------------------------------------------------|
|------------------------------------------------|
comments
We did not receive enough feedback on this tab! Please rate:
print report bad tab
1 2 3 4 5
I want to post or [tab]
guest
You may want to rate the tab now too:
select rating
Please do not post tabs as comments. Select "correction" instead!