Oops, an error
Loading. Please wait.

Madrugada Tab

ver3
ver3

Whole song

Interactive

More versions @911Tabs.com
2,260 views 33 this week
no commentswrite comment
1 2 3 4 5
excellent!
x 1
Autoscroll
+/-
esc
set tempo
stop
Contributor
Hey! There's an official Ultimate Guitar app which is ideal
for learning songs when you're away from computer. Get the app
WARNING: You are trying to view
                                    content from Ultimate-Guitar.com
                                    in an unauthorized application,
                                    which is prohibited.

                                    Please use an official Ultimate
                                    Guitar Tabs application for iPhone,
                                    iPad or Android to access legitimate
                                    chords, guitar, bass, and drum tabs
                                    from Ultimate-Guitar.com database.

                                    Type "ultimate guitar tabs" in Apple
                                    App Store's or Android Market's
                                    search to find the application.
-------## Tablatura de mi versión para Madrugada de Enjambre,
por Fernando Arroyo, checa mi
cover, para mayor referencia de la tab, en youtube
http://www.youtube.com/watch?v=7l7msJdidFo
Comentarios o sugerencias a fergto78@hotmail.com
http://www.facebook.com/fergto78
http://twitter.com/#!/fergto78 -------##

Afinación Estándar

Intro y verso

 Guitarra 1
e|--0--------0--------2-------------------------|
B|--0--------2--------3-------------------------|
G|--0--------0--------4----------(2 tiempos)----|
D|--2--------2--------4-------------------------|
A|--2--------0--------2-------------------------|
E|--0-------------------------------------------|

Puente al pre coro
 
 Guitarra 1  (armónicos naturales)
|----------------------(5)-(5)-------------------|
|-------------(5)-(5)----------------------------|
|-----(5)-(5)------------------------------------|
|------------------------------------------------|
|------------------------------------------------|
|------------------------------------------------|
|
| Guitarra 2
|------------------------------------------------|
|----------------------(7)-(7)-------------------|
|-------------(7)-(7)----------------------------|
|-----(7)-(7)------------------------------------|
|------------------------------------------------|
|------------------------------------------------|

Pre coro 

  Guitarra 1
|--0-----------0----------2-----------2---------------|
|--0-----------2----------2-----------3---------------|
|--0-----------0----------2-----------4---------------|
|--2-----------2----------4-----------4---------------|
|--2-----------0----------4-----------2---------------|
|--0----------------------2---------------------------|
|
| Guitarra 2
|-----------------------------------------------------|
|-----------------------------------------------------|
|-7-9-7/6/4~---6-7-6/4/2~-------7-------------7---7---|
|--------------------------7/9----9-9-9---7h9---9---9-|
|-----------------------------------------------------|
|-----------------------------------------------------|

Pre coro (continuación)

  Guitarra 1
|--0-----------0----------2-----------2---------------|
|--0-----------2----------2-----------3---------------|
|--0-----------0----------2-----------4---------------|
|--2-----------2----------4-----------4---------------|
|--2-----------0----------4-----------2---------------|
|--0----------------------2------------------fergto78-|
|
| Guitarra 2
|-----------------------------------------------------|
|-----------------------------------------------------|
|-7-9-7/6/4~---6-7-6/4/2~-------7---------------------|
|--------------------------7/9----9-9-9---------------|
|-----------------------------------------------------|
|-----------------------------------------------------|

Puente al coro

Guitarra 1  (armónicos naturales)
|----------------------(5)-(5)-------------------|
|-------------(5)-(5)----------------------------|
|-----(5)-(5)------------------------------------|
|------------------------------------------------|
|------------------------------------------------|
|------------------------------------------------|
|
| Guitarra 2
|------------------------------------------------|
|----------------------(7)-(7)-------------------|
|-------------(7)-(7)----------------------------|
|-----(7)-(7)------------------------------------|
|------------------------------------------------|
|------------------------------------------------|

Puente al coro (continuación)

Guitarra 1  
|---------------------------------------|
|-3-3-3-3--2-2-2-2----------------------|
|-2-2-2-2--1-1-1-1--4-4-4-4--3-3-3-3----|
|-------------------4-4-4-4--3-3-3-3----|
|---------------------------------------|
|---------------------------------------|
|
| Guitarra 2
|---------------------------------------|
|---------------------------------------|
|-7--------6--------4--------3----------|
|---------------------------------------|
|---------------------------------------|
|---------------------------------------|

Coro

 Guitarra 1  
|------------------------------------------------------|
|------------------------------------------------------|
|------------------------------------------------------|
|-4--4--4-4---7--7--7-7----9---9---9--9---8---8---8--8-|
|-5--5--5-5---6--6--6-6---10--10--10-10--10--10--10-10-|
|------------------------------------------------------|
|
| Guitarra 2
|----------------------------------------10--10--10-10-|
|-7--7--7-7---7--7--7-7---12--12--12-12--11--11--11-11-|
|-6--6--6-6---8--8--8-8---12--12--12-12--12--12--12-12-|
|-7--7--7-7---7--7--7-7---12--12--12-12--10--10--10-10-|
|-------------------------10--10--10-10--10--10--10-10-|
|------------------------------------------------------|

Coro (continuación)

 Guitarra 1  
|------------------------------------------------------|
|------------------------------------------------------|
|------------------------------------------------------|
|-4--4--4-4---7--7--7-7----9---9---9--9---8---8---8--8-|
|-5--5--5-5---6--6--6-6---10--10--10-10--10--10--10-10-|
|------------------------------------------------------|
|
| Guitarra 2
|----------------------------------------10--10--10-10-|
|-7--7--7-7---7--7--7-7---12--12--12-12--11--11--11-11-|
|-6--6--6-6---8--8--8-8---12--12--12-12--12--12--12-12-|
|-7--7--7-7---7--7--7-7---12--12--12-12--10--10--10-10-|
|-------------------------10--10--10-10--10--10--10-10-|
|------------------------------------------------------|

Coro (continuación)

 Guitarra 1  PM = Palm Mute
|-------------------------------------------|
|-------------------------------------------|
|-------------------------------------------|
|-4-4-4-4-4-4-4-0--7-7-7-7-7-7-7-0----------|
|-5-5-5-5-5-5-5-0--6-6-6-6-6-6-6-0----------|
|-------------------------------------------|
| PM. . . . . .    . . . . . . .
| 
| Guitarra 2
|-------------------------------------------|
|-----7-----7----------7-----7--------------|
|---6-----6---6------8-----8---8------------|
|-7-----7-------7--7-----7-------7----------|
|-------------------------------------------|
|-------------------------------------------|
 PM. . . . . . . . . . . . . . . .      

Coro (continuación)

 Guitarra 1  PM = Palm Mute
|------------------------------------------------|
|------------------------------------------------|
|------------------------------------------------|
|--9--9--9--9--9--9--9-0---8--8--8--8--8--8--8-0-|
|-10-10-10-10-10-10-10-0--10-10-10-10-10-10-10-0-|
|------------------------------------------------|
| PM. . . . . . . . .     . . . . . . . . . .
| 
| Guitarra 2
|------------------------------------------------|
|------12-------12-------------11-------11-------|
|---12-------12----12-------12-------12----12----|
|------------------------------------------------|
|-10-------10--------10---10-------10---------10-|
|------------------------------------------------|
 PM. . . . . . . . . . . . . . . . . . . . . . .     

Coro (continuación)

 Guitarra 1  PM = Palm Mute
|-------------------------------------------|
|-------------------------------------------|
|-------------------------------------------|
|-4-4-4-4-4-4-4-0--7-7-7-7-7-7-7-0----------|
|-5-5-5-5-5-5-5-0--6-6-6-6-6-6-6-0----------|
|-------------------------------------------|
| PM. . . . . .    . . . . . . .
| 
| Guitarra 2
|-------------------------------------------|
|-----7-----7----------7-----7--------------|
|---6-----6---6------8-----8---8------------|
|-7-----7-------7--7-----7-------7----------|
|-------------------------------------------|
|-------------------------------------------|
 PM. . . . . . . . . . . . . . . .      

Coro (continuación)

 Guitarra 1  PM = Palm Mute
|------------------------------------------------|
|------------------------------------------------|
|------------------------------------------------|
|--9--9--9--9--9--9--9-0---8--8--8--8--8--8--8-0-|
|-10-10-10-10-10-10-10-0--10-10-10-10-10-10-10-0-|
|------------------------------------------------|
| PM. . . . . . . . .     . . . . . . . . . .
| 
| Guitarra 2
|------------------------------------------------|
|------12-------12-------------11-------11-------|
|---12-------12----12-------12-------12----12----|
|------------------------------------------------|
|-10-------10--------10---10-------10---------10-|
|------------------------------------------------|
 PM. . . . . . . . . . . . . . . . . . . . . . .     

Puente al verso:

Guitarra 1  
|----------------------------------------------------2--|
|-3-3-3-3--2-2-2-2-----------------------------------3--|
|-2-2-2-2--1-1-1-1--4-4-4-4--3-3-3-3-4-4-4-4-3-3-3-3-4--|
|-------------------4-4-4-4--3-3-3-3-4-4-4-4-3-3-3-3-4--|
|----------------------------------------------------2--|
|-------------------------------------------------------|
|
| Guitarra 2
|-------------------------------------------------------|
|-------------------------------------------------------|
|-7--------6--------4--------3-------4-------3-------4/-|
|-------------------------------------------------------|
|-------------------------------------------------------|
|-------------------------------------------------------|

Verso 

 Guitarra 1
e|--0--------0--------2-------------------------|
B|--0--------2--------3-------------------------|
G|--0--------0--------4----------(2 tiempos)----|
D|--2--------2--------4-------------------------|
A|--2--------0--------2-------------------------|
E|--0-------------------------------------------|

Puente al pre coro
 
 Guitarra 1  (armónicos naturales)
|----------------------(5)-(5)-------------------|
|-------------(5)-(5)----------------------------|
|-----(5)-(5)------------------------------------|
|------------------------------------------------|
|------------------------------------------------|
|------------------------------------------------|
|
| Guitarra 2
|------------------------------------------------|
|----------------------(7)-(7)-------------------|
|-------------(7)-(7)----------------------------|
|-----(7)-(7)------------------------------------|
|------------------------------------------------|
|------------------------------------------------|

Pre coro 

  Guitarra 1
|--0-----------0----------2-----------2---------------|
|--0-----------2----------2-----------3---------------|
|--0-----------0----------2-----------4---------------|
|--2-----------2----------4-----------4---------------|
|--2-----------0----------4-----------2---------------|
|--0----------------------2---------------------------|
|
| Guitarra 2
|-----------------------------------------------------|
|-----------------------------------------------------|
|-7-9-7/6/4~---6-7-6/4/2~-------7-------------7---7---|
|--------------------------7/9----9-9-9---7h9---9---9-|
|-----------------------------------------------------|
|-----------------------------------------------------|

Pre coro (continuación)

  Guitarra 1
|--0-----------0----------2-----------2---------------|
|--0-----------2----------2-----------3---------------|
|--0-----------0----------2-----------4---------------|
|--2-----------2----------4-----------4---------------|
|--2-----------0----------4-----------2---------------|
|--0----------------------2---------------------------|
|
| Guitarra 2
|-----------------------------------------------------|
|-----------------------------------------------------|
|-7-9-7/6/4~---6-7-6/4/2~-------7---------------------|
|--------------------------7/9----9-9-9---------------|
|-----------------------------------------------------|
|-----------------------------------------------------|

Puente al solo

Guitarra 1  (armónicos naturales)
|----------------------(5)-(5)-------------------|
|-------------(5)-(5)----------------------------|
|-----(5)-(5)------------------------------------|
|------------------------------------------------|
|------------------------------------------------|
|------------------------------------------------|
|
| Guitarra 2
|------------------------------------------------|
|----------------------(7)-(7)-------------------|
|-------------(7)-(7)----------------------------|
|-----(7)-(7)------------------------------------|
|------------------------------------------------|
|------------------------------------------------|

Solo

 Guitarra 1 (4 Tiempos)
|--0-----------0----------2-----------2----------------------|
|--0-----------2----------2-----------3----------------------|
|--0-----------0----------2-----------4--------(4 Tiempos)---|
|--2-----------2----------4-----------4----------------------|
|--2-----------0----------4-----------2----------------------|
|--0----------------------2------------------fergto78--------|
|
| Guitarra 2
|------------------------------------------------------------|
|----7---------------------------10--8--7----------7---------|
|-------9--7--6--4--6—7/9------------------9--7--9---9-7-----|
|-5------------------------4/7~------------------------------|
|------------------------------------------------------------|
|------------------------------------------------------------|
|
| Guitarra 2
|------------------------------------------------------------|
|----7---------------------------10--8--7----------7---------|
|-------9--7--6--4--2--0------------------9~~--7h9---9-7-----|
|-5-----------------------4/7~---------------------------7---|
|------------------------------------------------------------|
|------------------------------------------------------------|
|
| Guitarra 2
|--------------------------------------------------------------------|
|------------------------15-12-12/------------------------19--15--15-|
|-----------------11--11---------------------------15--15------------|
|/12-12-12-12-12-------------------/16-16-16-16-16-------------------|
|--------------------------------------------------------------------|
|--------------------------------------------------------------------|
|
| Guitarra 2
|--------------------------------------------------------------------|
|--/14--15------15--14------14--15------15----19---17----------------|
|-----------16----------------------16-------------------------------|
|-----------------------16-------------------------------------------|
|--------------------------------------------------------------------|
|--------------------------------------------------------------------|

Puente al verso:

Guitarra 1  
|----------------------------------------------------2---|
|-3-3-3-3--2-2-2-2-----------------------------------3---|
|-2-2-2-2--1-1-1-1--4-4-4-4--3-3-3-3-4-4-4-4-3-3-3-3-4---|
|-------------------4-4-4-4--3-3-3-3-4-4-4-4-3-3-3-3-4---|
|----------------------------------------------------2---|
|--------------------------------------------------------|
|
| Guitarra 2
|--------------------------------------------------------|
|-15-------14-------12-------11------12------11------12/-|
|--------------------------------------------------------|
|--------------------------------------------------------|
|--------------------------------------------------------|
|--------------------------------------------------------|

Coro

 Guitarra 1  
|------------------------------------------------------|
|------------------------------------------------------|
|------------------------------------------------------|
|-4--4--4-4---7--7--7-7----9---9---9--9---8---8---8--8-|
|-5--5--5-5---6--6--6-6---10--10--10-10--10--10--10-10-|
|------------------------------------------------------|
|
| Guitarra 2
|----------------------------------------10--10--10-10-|
|-7--7--7-7---7--7--7-7---12--12--12-12--11--11--11-11-|
|-6--6--6-6---8--8--8-8---12--12--12-12--12--12--12-12-|
|-7--7--7-7---7--7--7-7---12--12--12-12--10--10--10-10-|
|-------------------------10--10--10-10--10--10--10-10-|
|------------------------------------------------------|

Coro (continuación)

 Guitarra 1  
|------------------------------------------------------|
|------------------------------------------------------|
|------------------------------------------------------|
|-4--4--4-4---7--7--7-7----9---9---9--9---8---8---8--8-|
|-5--5--5-5---6--6--6-6---10--10--10-10--10--10--10-10-|
|------------------------------------------------------|
|
| Guitarra 2
|----------------------------------------10--10--10-10-|
|-7--7--7-7---7--7--7-7---12--12--12-12--11--11--11-11-|
|-6--6--6-6---8--8--8-8---12--12--12-12--12--12--12-12-|
|-7--7--7-7---7--7--7-7---12--12--12-12--10--10--10-10-|
|-------------------------10--10--10-10--10--10--10-10-|
|------------------------------------------------------|

Coro (continuación)

 Guitarra 1  PM = Palm Mute
|-------------------------------------------|
|-------------------------------------------|
|-------------------------------------------|
|-4-4-4-4-4-4-4-0--7-7-7-7-7-7-7-0----------|
|-5-5-5-5-5-5-5-0--6-6-6-6-6-6-6-0----------|
|-------------------------------------------|
| PM. . . . . .    . . . . . . .
| 
| Guitarra 2
|-------------------------------------------|
|-----7-----7----------7-----7--------------|
|---6-----6---6------8-----8---8------------|
|-7-----7-------7--7-----7-------7----------|
|-------------------------------------------|
|-------------------------------------------|
 PM. . . . . . . . . . . . . . . .      

Coro (continuación)

 Guitarra 1  PM = Palm Mute
|------------------------------------------------|
|------------------------------------------------|
|------------------------------------------------|
|--9--9--9--9--9--9--9-0---8--8--8--8--8--8--8-0-|
|-10-10-10-10-10-10-10-0--10-10-10-10-10-10-10-0-|
|------------------------------------------------|
| PM. . . . . . . . .     . . . . . . . . . .
| 
| Guitarra 2
|------------------------------------------------|
|------12-------12-------------11-------11-------|
|---12-------12----12-------12-------12----12----|
|------------------------------------------------|
|-10-------10--------10---10-------10---------10-|
|------------------------------------------------|
 PM. . . . . . . . . . . . . . . . . . . . . . .     

Coro (continuación)

 Guitarra 1  PM = Palm Mute
|-------------------------------------------|
|-------------------------------------------|
|-------------------------------------------|
|-4-4-4-4-4-4-4-0--7-7-7-7-7-7-7-0----------|
|-5-5-5-5-5-5-5-0--6-6-6-6-6-6-6-0----------|
|-------------------------------------------|
| PM. . . . . .    . . . . . . .
| 
| Guitarra 2
|-------------------------------------------|
|-----7-----7----------7-----7--------------|
|---6-----6---6------8-----8---8------------|
|-7-----7-------7--7-----7-------7----------|
|-------------------------------------------|
|-----------------------------------fergto78|
 PM. . . . . . . . . . . . . . . .      

Coro (continuación)

 Guitarra 1  PM = Palm Mute
|------------------------------------------------|
|------------------------------------------------|
|------------------------------------------------|
|--9--9--9--9--9--9--9-0---8--8--8--8--8--8--8---|
|-10-10-10-10-10-10-10-0--10-10-10-10-10-10-10---|
|------------------------------------------------|
| PM. . . . . . . . .     . . . . . 
| 
| Guitarra 2
|-------------------------------------10-10-10---|
|------12-------12-------------11-----11-11-11---|
|---12-------12----12-------12--------12-12-12---|
|-------------------------------------10-10-10---|
|-10-------10--------10---10-------10-10-10-10---|
|------------------------------------------------|
 PM. . . . . . . . . . . . . . . . . . . . . . .    

Outro

Guitarra 1  
|------------------------------------------------------|
|------------------------------------------------------|
|------------------------------------------------------|
|-4--4--4-4---7--7--7-7----9---9---9--9---8---8---8--8-|
|-5--5--5-5---6--6--6-6---10--10--10-10--10--10--10-10-|
|------------------------------------------------------|
|
| Guitarra 2
|----------------------------------------10--10--10-10-|
|-7--7--7-7---7--7--7-7---12--12--12-12--11--11--11-11-|
|-6--6--6-6---8--8--8-8---12--12--12-12--12--12--12-12-|
|-7--7--7-7---7--7--7-7---12--12--12-12--10--10--10-10-|
|-------------------------10--10--10-10--10--10--10-10-|
|------------------------------------------------------|

Outro (continuación)

 Guitarra 1  
|------------------------------------------------------|
|------------------------------------------------------|
|------------------------------------------------------|
|-4--4--4-4---7--7--7-7----9---9---9--9---8---8---8--8-|
|-5--5--5-5---6--6--6-6---10--10--10-10--10--10--10-10-|
|------------------------------------------------------|
|
| Guitarra 2
|----------------------------------------10--10--10-10-|
|-7--7--7-7---7--7--7-7---12--12--12-12--11--11--11-11-|
|-6--6--6-6---8--8--8-8---12--12--12-12--12--12--12-12-|
|-7--7--7-7---7--7--7-7---12--12--12-12--10--10--10-10-|
|-------------------------10--10--10-10--10--10--10-10-|
|------------------------------------------------------|

Fin 

Guitarra 1  
|--------------------|
|----7~~-------------|
|----6~~-------------|
|----7~~-------------|
|--------------------|
|--------------------|
|
| Guitarra 2
|--------------------|
|----7~~-------------|
|----6~~-------------|
|----7~~-------------|
|--------------------|
|--------------------|
comments
We did not receive enough feedback on this tab! Please rate:
print report bad tab
1 2 3 4 5
I want to post or [tab]
guest
You may want to rate the tab now too:
select rating
Please do not post tabs as comments. Select "correction" instead!