Oops, an error
Loading. Please wait.

Mania Cardiaca Tab

ver1
ver1

Whole song

Interactive

More versions @911Tabs.com
14,839 views 6 this week
no commentswrite comment
1 2 3 4 5
excellent!
x 2
Autoscroll
+/-
esc
set tempo
stop
Contributor
Hey! There's an official Ultimate Guitar app which is ideal
for learning songs when you're away from computer. Get the app
WARNING: You are trying to view
                                    content from Ultimate-Guitar.com
                                    in an unauthorized application,
                                    which is prohibited.

                                    Please use an official Ultimate
                                    Guitar Tabs application for iPhone,
                                    iPad or Android to access legitimate
                                    chords, guitar, bass, and drum tabs
                                    from Ultimate-Guitar.com database.

                                    Type "ultimate guitar tabs" in Apple
                                    App Store's or Android Market's
                                    search to find the application.
                                Mania Cardiaca                                  


                                                                        Enajmbre
Pista 1

checa como se escucha: http://www.youtube.com/watch?v=erHc3hL0Vfw

                     S W                   S H           S H         
E||-------|-------|----7----------------|----6--------|----4--------|
B||-------|-------|----9----------------|----7--------|----5--------|
G||-------|-------|--9-9----------------|--8-8--------|--6-6--------|
D||-------|-------|--9------------------|--8----------|--6----------|
A||-------|-------|---------------------|-------------|-------------|
E||-------|-------|---------------------|-------------|-------------|


  S H           S H           S H           S H           S H         
----2--------|----7--------|----6--------|----4--------|----2--------|
----4--------|----9--------|----7--------|----5--------|----4--------|
--4-4--------|--9-9--------|--8-8--------|--6-6--------|--4-4--------|
--4----------|--9----------|--8----------|--6----------|--4----------|
-------------|-------------|-------------|-------------|-------------|
-------------|-------------|-------------|-------------|-------------|


  S H           S H           S H           S H         
----7--------|----6--------|----4--------|----2--------|
----9--------|----7--------|----5--------|----4--------|
--9-9--------|--8-8--------|--6-6--------|--4-4--------|
--9----------|--8----------|--6----------|--4----------|
-------------|-------------|-------------|-------------|
-------------|-------------|-------------|-------------|


  E  S E  S E  E  S E  S E     E  S E  S E  E  S E  S E   
-------7------------7-------|-------6------------6-------|
-----9----9-------9----9----|-----7----7-------7----7----|
--9---------9--9---------9--|--8---------8--8---------8--|
----------------------------|----------------------------|
----------------------------|----------------------------|
----------------------------|----------------------------|


  E  S E  S E  E  S E  S E     E  S E  S E  E  S E  S E   
-------4------------4-------|-------2------------2-------|
-----5----5-------5----5----|-----4----4-------4----4----|
--6---------6--6---------6--|--4---------4--4---------4--|
----------------------------|----------------------------|
----------------------------|----------------------------|
----------------------------|----------------------------|


  E  S E  S E  E  S E  S E     E  S E  S E  E  S E  S E   
-------7------------7-------|-------6------------6-------|
-----9----9-------9----9----|-----7----7-------7----7----|
--9---------9--9---------9--|--8---------8--8---------8--|
----------------------------|----------------------------|
----------------------------|----------------------------|
----------------------------|----------------------------|


  E  S E  S E  E  S E  S E     E  E  E  E  E  E  S T S T T T  
-------4------------4-------|--------------------------------|
-----5----5-------5----5----|--------------------------------|
--6---------6--6---------6--|--8--8--8--8--8-----------------|
----------------------------|--9--9--9--9--9--9--9-9-9-x-9-9-|
----------------------------|--9--9--9--9--9--9--9-9-9-x-9-9-|
----------------------------|--7--7--7--7--7--7--7-7-7-x-7-7-|


  E  E  E  E  E  E  E  E      E   E   E   E   E   E   E   E   
--------------------------|----------------------------------|
--------------------------|--12--12--12--12--12--12--12--12--|
--8--8--8--8--8--8--8--8--|--13--13--13--13--13--13--13--13--|
--9--9--9--9--9--9--9--9--|--13--13--13--13--13--13--13--13--|
--9--9--9--9--9--9--9--9--|--11--11--11--11--11--11--11--11--|
--7--7--7--7--7--7--7--7--|----------------------------------|


   E   S  E   S  S  E   E   E   S  S  S     E   E   E   E   E   E   E   E   
--12--12-12--12-12-12--12--12--12-12-12-|----------------------------------|
--14--14-14--14-15-14--14--14--14-14-14-|--10--10--10--10--10--10--10--10--|
--13--13-13--13-13-13--13--13--13-13-13-|--11--11--11--11--11--11--11--11--|
----------------------------------------|--11--11--11--11--11--11--11--11--|
----------------------------------------|---9---9---9---9---9---9---9---9--|
----------------------------------------|----------------------------------|


  E  S E  S S E  E  E  S S S    E  E  E  E  E  E  E  E   
-----7-7--7-7-7--7--7--7-7-7-|--------------------------|
--7--7-7--7-7-7--7--7--7-7-7-|--8--8--8--8--8--8--8--8--|
--8--9-8--8-8-8--8--8--8-8-8-|--9--9--9--9--9--9--9--9--|
--9--9-9--9-9-9--9--9--9-9-9-|--9--9--9--9--9--9--9--9--|
--9--9-9--9-9-9--9--9--9-9-9-|--7--7--7--7--7--7--7--7--|
-----------------------------|--------------------------|


   E   S  E   S  S  E   E   E   S  S  S     E   E   E   E   E   E   E   E   
---7---7--7---7--7--7---7---7---7--7--7-|----------------------------------|
--10--10-10--10-10-10--10--10--10-10-10-|--10--10--10--10--10--10--10--10--|
---9---9--9---9--9--9---9---9---9--9--9-|--11--11--11--11--11--11--11--11--|
----------------------------------------|--11--11--11--11--11--11--11--11--|
----------------------------------------|---9---9---9---9---9---9---9---9--|
----------------------------------------|----------------------------------|


  E  S E  S S E  E  E  S S S     E   E   E   E   E   E   E   E   
-----7-7--7-7-7--7--7--7-7-7-|----------------------------------|
--7--7-7--7-7-7--7--7--7-7-7-|--12--12--12--12--12--12--12--12--|
--8--9-8--8-8-8--8--8--8-8-8-|--13--13--13--13--13--13--13--13--|
--9--9-9--9-9-9--9--9--9-9-9-|--13--13--13--13--13--13--13--13--|
--9--9-9--9-9-9--9--9--9-9-9-|--11--11--11--11--11--11--11--11--|
-----------------------------|----------------------------------|


   E   S  E   S  S  E   E   E   S  S  S     E   E   E   E   E   E   E   E   
--12--12-12--12-12-12--12--12--12-12-12-|----------------------------------|
--14--14-14--14-15-14--14--14--14-14-14-|--10--10--10--10--10--10--10--10--|
--13--13-13--13-13-13--13--13--13-13-13-|--11--11--11--11--11--11--11--11--|
----------------------------------------|--11--11--11--11--11--11--11--11--|
----------------------------------------|---9---9---9---9---9---9---9---9--|
----------------------------------------|----------------------------------|


  E  S E  S S E  E  E  S S S    E  E  E  E  E  E  E  E   
-----7-7--7-7-7--7--7--7-7-7-|--------------------------|
--7--7-7--7-7-7--7--7--7-7-7-|--8--8--8--8--8--8--8--8--|
--8--9-8--8-8-8--8--8--8-8-8-|--9--9--9--9--9--9--9--9--|
--9--9-9--9-9-9--9--9--9-9-9-|--9--9--9--9--9--9--9--9--|
--9--9-9--9-9-9--9--9--9-9-9-|--7--7--7--7--7--7--7--7--|
-----------------------------|--------------------------|


                                            ^                               
   E   S  E   S  S  E   E   E   S  S  S     W                   S H         
---7---7--7---7--7--7---7---7---7--7--7-|--------------------|----7--------|
--10--10-10--10-10-10--10--10--10-10-10-|--10----------------|----9--------|
---9---9--9---9--9--9---9---9---9--9--9-|--11----------------|--9-9--------|
----------------------------------------|--11----------------|--9----------|
----------------------------------------|---9----------------|-------------|
----------------------------------------|--------------------|-------------|


  S H           S H           S H           S H           S H         
----6--------|----4--------|----2--------|----7--------|----6--------|
----7--------|----5--------|----4--------|----9--------|----7--------|
--8-8--------|--6-6--------|--4-4--------|--9-9--------|--8-8--------|
--8----------|--6----------|--4----------|--9----------|--8----------|
-------------|-------------|-------------|-------------|-------------|
-------------|-------------|-------------|-------------|-------------|


  S H           S H           S H           S H           S H         
----4--------|----2--------|----7--------|----6--------|----4--------|
----5--------|----4--------|----9--------|----7--------|----5--------|
--6-6--------|--4-4--------|--9-9--------|--8-8--------|--6-6--------|
--6----------|--4----------|--9----------|--8----------|--6----------|
-------------|-------------|-------------|-------------|-------------|
-------------|-------------|-------------|-------------|-------------|


  S H           E  S E  S E  E  S E  S E     E  S E  S E  E  S E  S E   
----2--------|-------7------------7-------|-------6------------6-------|
----4--------|-----9----9-------9----9----|-----7----7-------7----7----|
--4-4--------|--9---------9--9---------9--|--8---------8--8---------8--|
--4----------|----------------------------|----------------------------|
-------------|----------------------------|----------------------------|
-------------|----------------------------|----------------------------|


  E  S E  S E  E  S E  S E     E  S E  S E  E  S E  S E   
-------4------------4-------|-------2------------2-------|
-----5----5-------5----5----|-----4----4-------4----4----|
--6---------6--6---------6--|--4---------4--4---------4--|
----------------------------|----------------------------|
----------------------------|----------------------------|
----------------------------|----------------------------|


  E  S E  S E  E  S E  S E     E  S E  S E  E  S E  S E   
-------7------------7-------|-------6------------6-------|
-----9----9-------9----9----|-----7----7-------7----7----|
--9---------9--9---------9--|--8---------8--8---------8--|
----------------------------|----------------------------|
----------------------------|----------------------------|
----------------------------|----------------------------|


  E  S E  S E  E  S E  S E     E  E  E  E  E  E  S T S T T T  
-------4------------4-------|--------------------------------|
-----5----5-------5----5----|--------------------------------|
--6---------6--6---------6--|--8--8--8--8--8-----------------|
----------------------------|--9--9--9--9--9--9--9-9-9-x-9-9-|
----------------------------|--9--9--9--9--9--9--9-9-9-x-9-9-|
----------------------------|--7--7--7--7--7--7--7-7-7-x-7-7-|


  E  E  E  E  E  E  E  E      E   E   E   E   E   E   E   E   
--------------------------|----------------------------------|
--------------------------|--12--12--12--12--12--12--12--12--|
--8--8--8--8--8--8--8--8--|--13--13--13--13--13--13--13--13--|
--9--9--9--9--9--9--9--9--|--13--13--13--13--13--13--13--13--|
--9--9--9--9--9--9--9--9--|--11--11--11--11--11--11--11--11--|
--7--7--7--7--7--7--7--7--|----------------------------------|


   E   S  E   S  S  E   E   E   S  S  S     E   E   E   E   E   E   E   E   
--12--12-12--12-12-12--12--12--12-12-12-|----------------------------------|
--14--14-14--14-15-14--14--14--14-14-14-|--10--10--10--10--10--10--10--10--|
--13--13-13--13-13-13--13--13--13-13-13-|--11--11--11--11--11--11--11--11--|
----------------------------------------|--11--11--11--11--11--11--11--11--|
----------------------------------------|---9---9---9---9---9---9---9---9--|
----------------------------------------|----------------------------------|


  E  S E  S S E  E  E  S S S    E  E  E  E  E  E  E  E   
-----7-7--7-7-7--7--7--7-7-7-|--------------------------|
--7--7-7--7-7-7--7--7--7-7-7-|--8--8--8--8--8--8--8--8--|
--8--9-8--8-8-8--8--8--8-8-8-|--9--9--9--9--9--9--9--9--|
--9--9-9--9-9-9--9--9--9-9-9-|--9--9--9--9--9--9--9--9--|
--9--9-9--9-9-9--9--9--9-9-9-|--7--7--7--7--7--7--7--7--|
-----------------------------|--------------------------|


   E   S  E   S  S  E   E   E   S  S  S     E   E   E   E   E   E   E   E   
---7---7--7---7--7--7---7---7---7--7--7-|----------------------------------|
--10--10-10--10-10-10--10--10--10-10-10-|--10--10--10--10--10--10--10--10--|
---9---9--9---9--9--9---9---9---9--9--9-|--11--11--11--11--11--11--11--11--|
----------------------------------------|--11--11--11--11--11--11--11--11--|
----------------------------------------|---9---9---9---9---9---9---9---9--|
----------------------------------------|----------------------------------|


  E  S E  S S E  E  E  S S S     E   E   E   E   E   E   E   E   
-----7-7--7-7-7--7--7--7-7-7-|----------------------------------|
--7--7-7--7-7-7--7--7--7-7-7-|--12--12--12--12--12--12--12--12--|
--8--9-8--8-8-8--8--8--8-8-8-|--13--13--13--13--13--13--13--13--|
--9--9-9--9-9-9--9--9--9-9-9-|--13--13--13--13--13--13--13--13--|
--9--9-9--9-9-9--9--9--9-9-9-|--11--11--11--11--11--11--11--11--|
-----------------------------|----------------------------------|


   E   S  E   S  S  E   E   E   S  S  S     E   E   E   E   E   E   E   E   
--12--12-12--12-12-12--12--12--12-12-12-|----------------------------------|
--14--14-14--14-15-14--14--14--14-14-14-|--10--10--10--10--10--10--10--10--|
--13--13-13--13-13-13--13--13--13-13-13-|--11--11--11--11--11--11--11--11--|
----------------------------------------|--11--11--11--11--11--11--11--11--|
----------------------------------------|---9---9---9---9---9---9---9---9--|
----------------------------------------|----------------------------------|


  E  S E  S S E  E  E  S S S    E  E  E  E  E  E  E  E   
-----7-7--7-7-7--7--7--7-7-7-|--------------------------|
--7--7-7--7-7-7--7--7--7-7-7-|--8--8--8--8--8--8--8--8--|
--8--9-8--8-8-8--8--8--8-8-8-|--9--9--9--9--9--9--9--9--|
--9--9-9--9-9-9--9--9--9-9-9-|--9--9--9--9--9--9--9--9--|
--9--9-9--9-9-9--9--9--9-9-9-|--7--7--7--7--7--7--7--7--|
-----------------------------|--------------------------|


   E   S  E   S  S  E   E   E   S  S  S     E   E   E   E   E   E   E   E   
---7---7--7---7--7--7---7---7---7--7--7-|----------------------------------|
--10--10-10--10-10-10--10--10--10-10-10-|--10--10--10--10--10--10--10--10--|
---9---9--9---9--9--9---9---9---9--9--9-|--11--11--11--11--11--11--11--11--|
----------------------------------------|--11--11--11--11--11--11--11--11--|
----------------------------------------|---9---9---9---9---9---9---9---9--|
----------------------------------------|----------------------------------|


  E  S E  S S E  E  E  S S S     E   E   E   E   E   E   E   E   
-----7-7--7-7-7--7--7--7-7-7-|----------------------------------|
--7--7-7--7-7-7--7--7--7-7-7-|--12--12--12--12--12--12--12--12--|
--8--9-8--8-8-8--8--8--8-8-8-|--13--13--13--13--13--13--13--13--|
--9--9-9--9-9-9--9--9--9-9-9-|--13--13--13--13--13--13--13--13--|
--9--9-9--9-9-9--9--9--9-9-9-|--11--11--11--11--11--11--11--11--|
-----------------------------|----------------------------------|


   E   S  E   S  S  E   E   E   S  S  S     E   E   E   E   E   E   E   E   
--12--12-12--12-12-12--12--12--12-12-12-|----------------------------------|
--14--14-14--14-15-14--14--14--14-14-14-|--10--10--10--10--10--10--10--10--|
--13--13-13--13-13-13--13--13--13-13-13-|--11--11--11--11--11--11--11--11--|
----------------------------------------|--11--11--11--11--11--11--11--11--|
----------------------------------------|---9---9---9---9---9---9---9---9--|
----------------------------------------|----------------------------------|


  E  S E  S S E  E  E  S S S    E  E  E  E  E  E  E  E   
-----7-7--7-7-7--7--7--7-7-7-|--------------------------|
--7--7-7--7-7-7--7--7--7-7-7-|--8--8--8--8--8--8--8--8--|
--8--9-8--8-8-8--8--8--8-8-8-|--9--9--9--9--9--9--9--9--|
--9--9-9--9-9-9--9--9--9-9-9-|--9--9--9--9--9--9--9--9--|
--9--9-9--9-9-9--9--9--9-9-9-|--7--7--7--7--7--7--7--7--|
-----------------------------|--------------------------|


                                            ^                 
   E   S  E   S  S  E   E   E   S  S  S     W                 
---7---7--7---7--7--7---7---7---7--7--7-|--------------------|
--10--10-10--10-10-10--10--10--10-10-10-|--10----------------|
---9---9--9---9--9--9---9---9---9--9--9-|--11----------------|
----------------------------------------|--11----------------|
----------------------------------------|---9----------------|
----------------------------------------|--------------------|


  S S S S S S S S S S S S S S S S    S S S S S S S S S S S S S S S S  
----------------------------------|----------------------------------|
--9-9-9-9-9-9-9-9-9-9-9-9-9-9-9-9-|--7-7-7-7-7-7-7-7-7-7-7-7-7-7-7-7-|
--9-9-9-9-9-9-9-9-9-9-9-9-9-9-9-9-|--8-8-8-8-8-8-8-8-8-8-8-8-8-8-8-8-|
--9-9-9-9-9-9-9-9-9-9-9-9-9-9-9-9-|--8-8-8-8-8-8-8-8-8-8-8-8-8-8-8-8-|
--7-7-7-7-7-7-7-7-7-7-7-7-7-7-7-7-|--6-6-6-6-6-6-6-6-6-6-6-6-6-6-6-6-|
----------------------------------|----------------------------------|


  S S S S S S S S S S S S S S S S    S S S S S S S S S S S S S S S S  
----------------------------------|----------------------------------|
--5-5-5-5-5-5-5-5-5-5-5-5-5-5-5-5-|--4-4-4-4-4-4-4-4-4-4-4-4-4-4-4-4-|
--6-6-6-6-6-6-6-6-6-6-6-6-6-6-6-6-|--4-4-4-4-4-4-4-4-4-4-4-4-4-4-4-4-|
--6-6-6-6-6-6-6-6-6-6-6-6-6-6-6-6-|--4-4-4-4-4-4-4-4-4-4-4-4-4-4-4-4-|
--4-4-4-4-4-4-4-4-4-4-4-4-4-4-4-4-|--2-2-2-2-2-2-2-2-2-2-2-2-2-2-2-2-|
----------------------------------|----------------------------------|


  S S S S S S S S S S S S S S S S    S S S S S S S S S S S S S S S S  
----------------------------------|----------------------------------|
--9-9-9-9-9-9-9-9-9-9-9-9-9-9-9-9-|--7-7-7-7-7-7-7-7-7-7-7-7-7-7-7-7-|
--9-9-9-9-9-9-9-9-9-9-9-9-9-9-9-9-|--8-8-8-8-8-8-8-8-8-8-8-8-8-8-8-8-|
--9-9-9-9-9-9-9-9-9-9-9-9-9-9-9-9-|--8-8-8-8-8-8-8-8-8-8-8-8-8-8-8-8-|
--7-7-7-7-7-7-7-7-7-7-7-7-7-7-7-7-|--6-6-6-6-6-6-6-6-6-6-6-6-6-6-6-6-|
----------------------------------|----------------------------------|


  S S S S S S S S S S S S S S S S    W                 
----------------------------------|-------------------|
--5-5-5-5-5-5-5-5-5-5-5-5-5-5-5-5-|--4----------------|
--6-6-6-6-6-6-6-6-6-6-6-6-6-6-6-6-|--4----------------|
--6-6-6-6-6-6-6-6-6-6-6-6-6-6-6-6-|--4----------------|
--4-4-4-4-4-4-4-4-4-4-4-4-4-4-4-4-|--2----------------|
----------------------------------|-------------------|


  S S S S S S S S S S S S S S S S    S S S S S S S S S S S S S S S S  
----------------------------------|----------------------------------|
--9-9-9-9-9-9-9-9-9-9-9-9-9-9-9-9-|--7-7-7-7-7-7-7-7-7-7-7-7-7-7-7-7-|
--9-9-9-9-9-9-9-9-9-9-9-9-9-9-9-9-|--8-8-8-8-8-8-8-8-8-8-8-8-8-8-8-8-|
--9-9-9-9-9-9-9-9-9-9-9-9-9-9-9-9-|--8-8-8-8-8-8-8-8-8-8-8-8-8-8-8-8-|
--7-7-7-7-7-7-7-7-7-7-7-7-7-7-7-7-|--6-6-6-6-6-6-6-6-6-6-6-6-6-6-6-6-|
----------------------------------|----------------------------------|


  S S S S S S S S S S S S S S S S    S S S S S S S S S S S S S S S S  
----------------------------------|----------------------------------|
--5-5-5-5-5-5-5-5-5-5-5-5-5-5-5-5-|--4-4-4-4-4-4-4-4-4-4-4-4-4-4-4-4-|
--6-6-6-6-6-6-6-6-6-6-6-6-6-6-6-6-|--4-4-4-4-4-4-4-4-4-4-4-4-4-4-4-4-|
--6-6-6-6-6-6-6-6-6-6-6-6-6-6-6-6-|--4-4-4-4-4-4-4-4-4-4-4-4-4-4-4-4-|
--4-4-4-4-4-4-4-4-4-4-4-4-4-4-4-4-|--2-2-2-2-2-2-2-2-2-2-2-2-2-2-2-2-|
----------------------------------|----------------------------------|


  S S S S S S S S S S S S S S S S    S S S S S S S S S S S S S S S S  
----------------------------------|----------------------------------|
--9-9-9-9-9-9-9-9-9-9-9-9-9-9-9-9-|--7-7-7-7-7-7-7-7-7-7-7-7-7-7-7-7-|
--9-9-9-9-9-9-9-9-9-9-9-9-9-9-9-9-|--8-8-8-8-8-8-8-8-8-8-8-8-8-8-8-8-|
--9-9-9-9-9-9-9-9-9-9-9-9-9-9-9-9-|--8-8-8-8-8-8-8-8-8-8-8-8-8-8-8-8-|
--7-7-7-7-7-7-7-7-7-7-7-7-7-7-7-7-|--6-6-6-6-6-6-6-6-6-6-6-6-6-6-6-6-|
----------------------------------|----------------------------------|


  S S S S S S S S S S S S S S S S    W                  
----------------------------------|-------------------||
--9-9-9-9-9-9-9-9-9-9-9-9-9-9-9-9-|--4----------------||
--9-9-9-9-9-9-9-9-9-9-9-9-9-9-9-9-|--4----------------||
--9-9-9-9-9-9-9-9-9-9-9-9-9-9-9-9-|--4----------------||
--7-7-7-7-7-7-7-7-7-7-7-7-7-7-7-7-|--2----------------||
----------------------------------|-------------------||

http://enjambre.com.mx/
www.myspace.com/enjambre

comments
We did not receive enough feedback on this tab! Please rate:
print report bad tab
1 2 3 4 5
I want to post or [tab]
guest
You may want to rate the tab now too:
select rating
Please do not post tabs as comments. Select "correction" instead!