Oops, an error
Loading. Please wait.

Ultimo Tema Tab

ver1
ver1

Whole song

More versions @911Tabs.com
6,964 views 6 this week
no commentswrite comment
1 2 3 4 5
please rate
Autoscroll
+/-
esc
set tempo
stop
Contributor
Difficulty
novice
Hey! There's an official Ultimate Guitar app which is ideal
for learning songs when you're away from computer. Get the app
WARNING: You are trying to view
                                    content from Ultimate-Guitar.com
                                    in an unauthorized application,
                                    which is prohibited.

                                    Please use an official Ultimate
                                    Guitar Tabs application for iPhone,
                                    iPad or Android to access legitimate
                                    chords, guitar, bass, and drum tabs
                                    from Ultimate-Guitar.com database.

                                    Type "ultimate guitar tabs" in Apple
                                    App Store's or Android Market's
                                    search to find the application.
checa como se escucha: http://www.youtube.com/watch?v=B_Bh6oa70Y4

Pista 1
     E  E  S S S E  E  S S S S S    E  E  S S S E  E  S S S E   
E||--5--5--5-5-5-5--5--5-5-5-5-5-|-----------------------------|
B||--5--5--5-5-5-7--7--7-7-7-7-7-|--3--3--3-3-3-3--3--3-3-3-3--|
G||--5--5--5-5-5-5--5--5-5-5-5-5-|--4--4--4-4-4-4--4--4-4-4-4--|
D||--7--7--7-7-7-7--7--7-7-7-7-7-|--4--4--4-4-4-4--4--4-4-4-4--|
A||--7--7--7-7-7-5--5--5-5-5-5-5-|--2--2--2-2-2-2--2--2-2-2-2--|
E||--5--5--5-5-5-5--5--5-5-5-5-5-|-----------------------------|


  E  E  S S S E  E  S S S S S    E  E  S S S E  E  S S S E   
--5--5--5-5-5-5--5--5-5-5-5-5-|-----------------------------|
--5--5--5-5-5-7--7--7-7-7-7-7-|--3--3--3-3-3-3--3--3-3-3-3--|
--5--5--5-5-5-5--5--5-5-5-5-5-|--4--4--4-4-4-4--4--4-4-4-4--|
--7--7--7-7-7-7--7--7-7-7-7-7-|--4--4--4-4-4-4--4--4-4-4-4--|
--7--7--7-7-7-5--5--5-5-5-5-5-|--2--2--2-2-2-2--2--2-2-2-2--|
--5--5--5-5-5-5--5--5-5-5-5-5-|-----------------------------|


  E  E  S S S E  E  S S S S S    S S S S S S S S  
--5--5--5-5-5-5--5--5-5-5-5-5-|------5-5-5-5-5-5-|
--5--5--5-5-5-5--7--7-7-7-7-7-|------7-7-7-7-7-7-|
--5--5--5-5-5-5--5--5-5-5-5-5-|------5-5-5-5-5-5-|
--7--7--7-7-7-7--7--7-7-7-7-7-|------7-7-7-7-7-7-|
--7--7--7-7-7-7--5--5-5-5-5-5-|------5-5-5-5-5-5-|
--5--5--5-5-5-5--5--5-5-5-5-5-|----L-5-5-5-5-5-5-|


  S S S S S S S S S S S S S S S S    S S S S S S S S S S S S S S S S  
--7-7-----7-7-----2-2-----2-2-----|--7-7-----7-7-----2-2-----2-2-----|
--8-8-----8-8-----1-1-----1-1-----|--8-8-----8-8-----1-1-----1-1-----|
--7-7-----7-7-----2-2-----2-2-----|--7-7-----7-7-----2-2-----2-2-----|
----------------------------------|----------------------------------|
----------------------------------|----------------------------------|
----------------------------------|----------------------------------|


                                     W                 
  S S S S S S S S S S S S S S S S    W                 
--7-7-----7-7-----2-2-----2-2-----|--7----------------|
--8-8-----8-8-----1-1-----1-1-----|--8----------------|
--7-7-----7-7-----2-3-----2-2-----|--7----------------|
----------------------------------|-------------------|
----------------------------------|-------------------|
----------------------------------|-------------------|


  S S S S S S S S S S S S S S S S    S S S S S S S S S S S S S S S S  
--7-7-----7-7-----2-2-----2-2-----|--7-7-----7-7-----3-3-----3-3-----|
--8-8-----8-8-----1-1-----1-1-----|--8-8-----8-8-----4-4-----4-4-----|
--7-7-----7-7-----2-2-----2-2-----|--7-7-----7-7-----5-5-----5-5-----|
----------------------------------|----------------------------------|
----------------------------------|----------------------------------|
----------------------------------|----------------------------------|


  E  E  S S S S E  S S S S S S    E  E  S S S S E  S S S S S S  
--3--3--7-7-7-7-7--5-5-5-5-5-5-|--3--3--7-7-7-7-7--5-5-5-5-5-5-|
--3--3--8-8-8-8-8--5-5-5-5-5-5-|--3--3--8-8-8-8-8--5-5-5-5-5-5-|
--4--4--9-9-9-9-9--5-5-5-5-5-5-|--4--4--9-9-9-9-9--5-5-5-5-5-5-|
--5--5--9-9-9-9-9--7-7-7-7-7-7-|--5--5--9-9-9-9-9--7-7-7-7-7-7-|
--5--5--7-7-7-7-7--7-7-7-7-7-7-|--5--5--7-7-7-7-7--7-7-7-7-7-7-|
--3--3-------------5-5-5-5-5-5-|--3--3-------------5-5-5-5-5-5-|


  E  E  S S S E  E  S S S E     S S S S S S S S S S S S S S S S  
--3--3--3-3-3-3--3--3-3-3-3--|------7-----7---7-----7-----7---7-|
--4--4--4-4-4-4--4--4-4-4-4--|----8-----8---8-----8-----8---8---|
--5--5--5-5-5-5--5--5-5-5-5--|--7-----7---------9-----9---------|
--5--5--5-5-5-5--5--5-5-5-5--|----------------------------------|
-----------------------------|----------------------------------|
-----------------------------|----------------------------------|


  S S S S S S S S S S S S S S S S    S S S S S S S S S S S S S S S S  
------5-----5---5-----7-----7---7-|------7-----7---7-----7-----7---7-|
----5-----5---5-----7-----7---7---|----8-----8---8-----8-----8---8---|
--5-----5---------7-----7---------|--7-----7---------9-----9---------|
----------------------------------|----------------------------------|
----------------------------------|----------------------------------|
----------------------------------|----------------------------------|


  S S S S S S S S S S S S S S S S    S S S S S S S S S S S S S S S S  
------5-----5---5-----7-----7---7-|------7-----7---7-----7-----7---7-|
----5-----5---5-----7-----7---7---|----8-----8---8-----8-----8---8---|
--5-----5---------7-----7---------|--7-----7---------9-----9---------|
----------------------------------|----------------------------------|
----------------------------------|----------------------------------|
----------------------------------|----------------------------------|


  S S S S S S S S S S S S S S S S    S S S S S S S S S S S S S S S S  
------5-----5---5-----7-----7---7-|------7-----7---7-----7-----7---7-|
----5-----5---5-----7-----7---7---|----8-----8---8-----8-----8---8---|
--5-----5---------7-----7---------|--7-----7---------9-----9---------|
----------------------------------|----------------------------------|
----------------------------------|----------------------------------|
----------------------------------|----------------------------------|


  S S S S S S S S S S S S S S S S    E  E  S S S E  E  S S S S S  
------5-----5---5-----7-----7---7-|--5--5--5-5-5-5--5--5-5-5-5-5-|
----5-----5---5-----7-----7---7---|--5--5--5-5-5-7--7--7-7-7-7-7-|
--5-----5---------7-----7---------|--5--5--5-5-5-5--5--5-5-5-5-5-|
----------------------------------|--7--7--7-7-7-7--7--7-7-7-7-7-|
----------------------------------|--7--7--7-7-7-5--5--5-5-5-5-5-|
----------------------------------|--5--5--5-5-5-5--5--5-5-5-5-5-|


                 ^                                    
  Q    Q    Q    Q       E  E  S S S E  E  S S S S S  
----------------------|--5--5--5-5-5-5--5--5-5-5-5-5-|
----------------------|--5--5--5-5-5-7--7--7-7-7-7-7-|
--4----4----4----4----|--5--5--5-5-5-5--5--5-5-5-5-5-|
--5----5----5----5----|--7--7--7-7-7-7--7--7-7-7-7-7-|
--5----5----5----5----|--7--7--7-7-7-5--5--5-5-5-5-5-|
--3----3----3----3----|--5--5--5-5-5-5--5--5-5-5-5-5-|


  E  E  S S S E  E  S S S S S    E  E  S S S E  E  S S S S S  
--5--5--5-5-5-5--5--5-5-5-5-5-|--5--5--5-5-5-5--5--5-5-5-5-5-|
--5--5--5-5-5-7--7--7-7-7-7-7-|--5--5--5-5-5-7--7--7-7-7-7-7-|
--5--5--5-5-5-5--5--5-5-5-5-5-|--5--5--5-5-5-5--5--5-5-5-5-5-|
--7--7--7-7-7-7--7--7-7-7-7-7-|--7--7--7-7-7-7--7--7-7-7-7-7-|
--7--7--7-7-7-5--5--5-5-5-5-5-|--7--7--7-7-7-5--5--5-5-5-5-5-|
--5--5--5-5-5-5--5--5-5-5-5-5-|--5--5--5-5-5-5--5--5-5-5-5-5-|


  E  E  S S S E  E  S S S S S    S S S S S S S S S S S S S S S S  
--5--5--5-5-5-5--5--5-5-5-5-5-|--7-7-----7-7-----2-2-----2-2-----|
--5--5--5-5-5-7--7--7-7-7-7-7-|--8-8-----8-8-----1-1-----1-1-----|
--5--5--5-5-5-5--5--5-5-5-5-5-|--7-7-----7-7-----2-2-----2-2-----|
--7--7--7-7-7-7--7--7-7-7-7-7-|----------------------------------|
--7--7--7-7-7-5--5--5-5-5-5-5-|----------------------------------|
--5--5--5-5-5-5--5--5-5-5-5-5-|----------------------------------|


  S S S S S S S S S S S S S S S S    E  E  S S S S E  S S S S S S  
--7-7-----7-7-----2-2-----2-2-----|--3--3--7-7-7-7-7--5-5-5-5-5-5-|
--8-8-----8-8-----1-1-----1-1-----|--3--3--8-8-8-8-8--5-5-5-5-5-5-|
--7-7-----7-7-----2-2-----2-2-----|--4--4--9-9-9-9-9--5-5-5-5-5-5-|
----------------------------------|--5--5--9-9-9-9-9--7-7-7-7-7-7-|
----------------------------------|--5--5--7-7-7-7-7--7-7-7-7-7-7-|
----------------------------------|--3--3-------------5-5-5-5-5-5-|


  E  E  S S S S E  S S S S S S    E  E  S S S E  E  S S S E   
--3--3--7-7-7-7-7--5-5-5-5-5-5-|--3--3--3-3-3-3--3--3-3-3-3--|
--3--3--8-8-8-8-8--5-5-5-5-5-5-|--4--4--4-4-4-4--4--4-4-4-4--|
--4--4--9-9-9-9-9--5-5-5-5-5-5-|--5--5--5-5-5-5--5--5-5-5-5--|
--5--5--9-9-9-9-9--7-7-7-7-7-7-|--5--5--5-5-5-5--5--5-5-5-5--|
--5--5--7-7-7-7-7--7-7-7-7-7-7-|-----------------------------|
--3--3-------------5-5-5-5-5-5-|-----------------------------|


  W        W           W        W           W        W         
  H        H           H        H           H        H         
--5-----------------|--5-----------------|--5-----------------|
--5--------3--------|--5--------3--------|--5--------3--------|
--5--------4--------|--5--------4--------|--5--------4--------|
--7--------4--------|--7--------4--------|--7--------4--------|
--7--------2--------|--7--------2--------|--7--------2--------|
--5-----------------|--5-----------------|--5-----------------|


  S S S S S S S S S S S S S S S S    S S S S S S S S S S S S S S S S  
--3-3-3-3-3-3-3-3-3-3-3-3-3-3-3-3-|--5-5-5-5-5-5-5-5-5-5-5-5-5-5-5-5-|
--4-4-4-4-4-4-4-4-4-4-4-4-4-4-4-4-|--5-5-5-5-5-5-5-5-5-7-7-7-7-7-7-7-|
--5-5-5-5-5-5-5-5-5-5-5-5-5-5-5-5-|--5-5-5-5-5-5-5-5-5-5-5-5-5-5-5-5-|
--5-5-5-5-5-5-5-5-5-5-5-5-5-5-5-5-|--7-7-7-7-7-7-7-7-7-7-7-7-7-7-7-7-|
----------------------------------|--7-7-7-7-7-7-7-7-7-5-5-5-5-5-5-5-|
----------------------------------|--5-5-5-5-5-5-5-5-5-5-5-5-5-5-5-5-|


  S S S S S S S S S S S S S S S S    S S S S S S S S S S S S S S S S  
------7-----7---7-----7-----7---7-|------5-----5---5-----7-----7---7-|
----8-----8---8-----8-----8---8---|----5-----5---5-----7-----7---7---|
--7-----7---------9-----9---------|--5-----5---------7-----7---------|
----------------------------------|----------------------------------|
----------------------------------|----------------------------------|
----------------------------------|----------------------------------|


  S S S S S S S S S S S S S S S S    S S S S S S S S S S S S S S S S  
------7-----7---7-----7-----7---7-|------5-----5---5-----7-----7---7-|
----8-----8---8-----8-----8---8---|----5-----5---5-----7-----7---7---|
--7-----7---------9-----9---------|--5-----5---------7-----7---------|
----------------------------------|----------------------------------|
----------------------------------|----------------------------------|
----------------------------------|----------------------------------|


  S S S S S S S S S S S S S S S S    S S S S S S S S S S S S S S S S  
------7-----7---7-----7-----7---7-|------5-----5---5-----7-----7---7-|
----8-----8---8-----8-----8---8---|----5-----5---5-----7-----7---7---|
--7-----7---------9-----9---------|--5-----5---------7-----7---------|
----------------------------------|----------------------------------|
----------------------------------|----------------------------------|
----------------------------------|----------------------------------|


  S S S S S S S S S S S S S S S S    S S S S S S S S S S S S S S S S  
------7-----7---7-----7-----7---7-|------5-----5---5-----7-----7---7-|
----8-----8---8-----8-----8---8---|----5-----5---5-----7-----7---7---|
--7-----7---------9-----9---------|--5-----5---------7-----7---------|
----------------------------------|----------------------------------|
----------------------------------|----------------------------------|
----------------------------------|----------------------------------|


  S S S S S S S S S S S S S S S S    S S S S S S S S S S S S S S S S  
------7-----7---7-----7-----7---7-|------5-----5---5-----7-----7---7-|
----8-----8---8-----8-----8---8---|----5-----5---5-----7-----7---7---|
--7-----7---------9-----9---------|--5-----5---------7-----7---------|
----------------------------------|----------------------------------|
----------------------------------|----------------------------------|
----------------------------------|----------------------------------|


  S S S S S S S S S S S S S S S S    S S S S S S S S S S S S S S S S  
------7-----7---7-----7-----7---7-|------5-----5---5-----7-----7---7-|
----8-----8---8-----8-----8---8---|----5-----5---5-----7-----7---7---|
--7-----7---------9-----9---------|--5-----5---------7-----7---------|
----------------------------------|----------------------------------|
----------------------------------|----------------------------------|
----------------------------------|----------------------------------|


  S S S S S S S S S S S S S S S S    S S S S S S S S S S S S S S S S  
------7-----7---7-----7-----7---7-|------5-----5---5-----7-----7---7-|
----8-----8---8-----8-----8---8---|----5-----5---5-----7-----7---7---|
--7-----7---------9-----9---------|--5-----5---------7-----7---------|
----------------------------------|----------------------------------|
----------------------------------|----------------------------------|
----------------------------------|----------------------------------|


  S S S S S S S S S S S S S S S S    S S S S S S S S S S S S S S S S  
------7-----7---7-----7-----7---7-|------5-----5---5-----7-----7---7-|
----8-----8---8-----8-----8---8---|----5-----5---5-----7-----7---7---|
--7-----7---------9-----9---------|--5-----5---------7-----7---------|
----------------------------------|----------------------------------|
----------------------------------|----------------------------------|
----------------------------------|----------------------------------|


  ^        ^                                                            
  H        H            S  S  S  S  S  S  S  S  S  S  S  S  S  S  S  S  
--3--------3--------|--------------------------------------------------|
--4--------4--------|--------------------------------------------------|
--5--------5--------|--------------------------------------13-13-------|
--5--------5--------|--13-13-------------------10-10-12-12-------12-12-|
--------------------|--------10-10-11-11-10-10-------------------------|
--------------------|--------------------------------------------------|


   S  S  S  S  S  S  S  S  S  S  S  S  S  S  S  S  
--------------------------------------------------|
--------------------------------------------------|
--------------------------------------13-13-------|
--13-13-------------------10-10-12-12-------12-12-|
--------10-10-11-11-10-10-------------------------|
--------------------------------------------------|


   S  S  S  S  S  S  S  S  S  S  S  S  S  S  S  S  
--------------------------------------------------|
--------------------------------------------------|
--------------------------------------13-13-------|
--13-13-------------------10-10-12-12-------12-12-|
--------10-10-11-11-10-10-------------------------|
--------------------------------------------------|


   S  S  S  S  S  S  S  S  S  S  S  S  S  S  S  S  
--------------------------------------------------|
--------------------------------------------------|
--------------------------------------13-13-------|
--13-13-------------------10-10-12-12-------12-12-|
--------10-10-11-11-10-10-------------------------|
--------------------------------------------------|


   S  S  S  S  S  S  S  S  S  S  S  S  S  S  S  S  
--------------------------------------------------|
--------------------------------------------------|
--------------------------------------13-13-------|
--13-13-------------------10-10-12-12-------12-12-|
--------10-10-11-11-10-10-------------------------|
--------------------------------------------------|


   S  S  S  S  S  S  S  S  S  S  S  S  S  S  S  S  
--------------------------------------------------|
--------------------------------------------------|
--------------------------------------13-13-------|
--13-13-------------------10-10-12-12-------12-12-|
--------10-10-11-11-10-10-------------------------|
--------------------------------------------------|


   S  S  S  S  S  S  S  S  S  S  S  S  S  S  S  S  
--------------------------------------------------|
--------------------------------------------------|
--------------------------------------13-13-------|
--13-13-------------------10-10-12-12-------12-12-|
--------10-10-11-11-10-10-------------------------|
--------------------------------------------------|


   S  S  S  S  S  S  S  S  S  S  S  S  S  S  S  S  
--------------------------------------------------|
--------------------------------------------------|
--------------------------------------13-13-------|
--13-13-------------------10-10-12-12-------12-12-|
--------10-10-11-11-10-10-------------------------|
--------------------------------------------------|


   S  S  S  S  S  S  S  S  S  S  S  S  S  S  S  S   
--------------------------------------------------||
--------------------------------------------------||
--------------------------------------13-13-------||
--13-13-------------------10-10-12-12-------12-12-||
--------10-10-11-11-10-10-------------------------||
--------------------------------------------------||
comments
We did not receive enough feedback on this tab! Please rate:
print report bad tab
1 2 3 4 5
I want to post or [tab]
guest
You may want to rate the tab now too:
select rating
Please do not post tabs as comments. Select "correction" instead!