Oops, an error
Loading. Please wait.

Visita Tab

ver1
ver1

Intro

Whole song

Interactive

More versions @911Tabs.com
20,416 views 18 this week
1 commentread comment
1 2 3 4 5
accurate
x 5
add to favorites launch autoscroll
font size
0
reset
Autoscroll
+/-
esc
set tempo
stop
Contributor
Difficulty
novice
WARNING: You are trying to view
                                    content from Ultimate-Guitar.com
                                    in an unauthorized application,
                                    which is prohibited.

                                    Please use an official Ultimate
                                    Guitar Tabs application for iPhone,
                                    iPad or Android to access legitimate
                                    chords, guitar, bass, and drum tabs
                                    from Ultimate-Guitar.com database.

                                    Type "ultimate guitar tabs" in Apple
                                    App Store's or Android Market's
                                    search to find the application.
checa como se escucha: http://www.youtube.com/watch?v=D96tpLf96uU

Pista 1
     E  S Q    S E  S Q    S  
E||--------------------------|
B||--8----8------1----1------|
G||--9----9------2----2------|
D||--------------------------|
A||--------------------------|
E||--------------------------|


  E  S Q    S E  S Q    S  
--------------------------|
--7----7------3----3------|
--7----7------4----4------|
--------------------------|
--------------------------|
--------------------------|


  E  S Q    S E  S Q    S  
--------------------------|
--8----8------1----1------|
--9----9------2----2------|
--------------------------|
--------------------------|
--------------------------|


  E  S Q    S E  S Q    S  
--------------------------|
--7----7------3----3------|
--7----7------4----4------|
--------------------------|
--------------------------|
--------------------------|


  E  S Q    S E  S Q    S  
--------------------------|
--8----8------1----1------|
--9----9------2----2------|
--------------------------|
--------------------------|
--------------------------|


  E  S Q    S E  S Q    S  
--------------------------|
--7----7------3----3------|
--7----7------4----4------|
--------------------------|
--------------------------|
--------------------------|


  E  S Q    S E  S Q    S  
--------------------------|
--8----8------1----1------|
--9----9------2----2------|
--------------------------|
--------------------------|
--------------------------|


  E  S Q    S E  S Q    S  
--------------------------|
--7----7------3----3------|
--7----7------4----4------|
--------------------------|
--------------------------|
--------------------------|


  S S S S E  S S S S S Q    S  
------------------------------|
----------3--5-3-2------------|
------2-4----------5-4--------|
-----------------------4------|
------------------------------|
------------------------------|


  S S S S E  E  E  Q    E   
---------------------------|
----------3--5-------------|
------2-4-------5--4-------|
---------------------------|
---------------------------|
---------------------------|


  S S S S E  S S S S S Q    S  
------------------------------|
----------3--5-3-2------------|
------2-4----------5-4--------|
-----------------------4------|
------------------------------|
------------------------------|


  S S S S S S S S S S S S  S  S  S  S  
--------------------------------------|
--------------------------------------|
--4-4-4-4-5-5-5-5-7-7-7-7-11-11-11-11-|
--------------------------------------|
--------------------------------------|
--------------------------------------|


   S  S S S S S S S  S  S S S S S S S  
--------------------------------------|
--12-12-------------12-12-------------|
--12-12-------------12-12-------------|
--12-12-------------12-12-------------|
--10-10-------------10-10-------------|
--------------------------------------|


   S  S S S S S S S  S  S S S  S  S S S  
----------------------------------------|
--12-12---------------------------------|
--12-12---------------------------------|
--12-12-------------12-12-----12-12-----|
--10-10-------------12-12-----12-12-----|
--------------------10-10-----10-10-----|


   S  S S S S S S S  S  S S S S S S S  
--------------------------------------|
--12-12-------------12-12-------------|
--12-12-------------12-12-------------|
--12-12-------------12-12-------------|
--10-10-------------10-10-------------|
--------------------------------------|


   S  S S S S S S S  S  S S S  S  S S S  
----------------------------------------|
--12-12---------------------------------|
--12-12---------------------------------|
--12-12-------------12-12-----12-12-----|
--10-10-------------12-12-----12-12-----|
--------------------10-10-----10-10-----|


   S  S S S S S S S  S  S S S S S S S  
--------------------------------------|
--12-12-------------12-12-------------|
--12-12-------------12-12-------------|
--12-12-------------12-12-------------|
--10-10-------------10-10-------------|
--------------------------------------|


   S  S S S S S S S  S  S S S  S  S S S  
----------------------------------------|
--12-12---------------------------------|
--12-12---------------------------------|
--12-12-------------12-12-----12-12-----|
--10-10-------------12-12-----12-12-----|
--------------------10-10-----10-10-----|


   S  S S S S S S S  S  S S S S S S S  
--------------------------------------|
--12-12-------------12-12-------------|
--12-12-------------12-12-------------|
--12-12-------------12-12-------------|
--10-10-------------10-10-------------|
--------------------------------------|


   S  S S S S S S S  S  S S S  S  S S S  
----------------------------------------|
--12-12---------------------------------|
--12-12---------------------------------|
--12-12-------------12-12-----12-12-----|
--10-10-------------12-12-----12-12-----|
--------------------10-10-----10-10-----|


  E  S Q    S E  S Q    S  
--------------------------|
--8----8------1----1------|
--9----9------2----2------|
--------------------------|
--------------------------|
--------------------------|


  E  S Q    S E  S Q    S  
--------------------------|
--7----7------3----3------|
--7----7------4----4------|
--------------------------|
--------------------------|
--------------------------|


  E  S Q    S E  S Q    S  
--------------------------|
--8----8------1----1------|
--9----9------2----2------|
--------------------------|
--------------------------|
--------------------------|


  E  S Q    S E  S Q      S  
----------------------------|
--7----7------3----3--------|
--7----7------4----4----/16-|
----------------------------|
----------------------------|
----------------------------|


   H        Q      Q     
------------------------|
------------------------|
--12-------------/14----|
------------------------|
------------------------|
------------------------|


   H        Q      Q     
------------------------|
------------------------|
--11-------------/16----|
------------------------|
------------------------|
------------------------|


   H        Q      Q     
------------------------|
------------------------|
--12-------------/14----|
------------------------|
------------------------|
------------------------|


   H        Q      Q      
-------------------------|
-------------------------|
--11-------------/16\----|
-------------------------|
-------------------------|
-------------------------|


   S S S S E  S S S S S Q    S  
-------------------------------|
-----------3--5-3-2------------|
---L---2-4----------5-4--------|
------------------------4------|
-------------------------------|
-------------------------------|


  S S S S E  E  E  Q    E   
---------------------------|
----------3--5-------------|
------2-4-------5--4-------|
---------------------------|
---------------------------|
---------------------------|


  S S S S E  S S S S S Q    S  
------------------------------|
----------3--5-3-2------------|
------2-4----------5-4--------|
-----------------------4------|
------------------------------|
------------------------------|


  S S S S S S S S S S S S S S S S  
----------------------------------|
----------------------------------|
--4-4-4-4-5-5-5-5-7-7-7-7-9-9-9-9-|
----------------------------------|
----------------------------------|
----------------------------------|


   S  S  S  S  S  S  S  S  S  S  S  S  S  S  
---------------------------------------------
---------------------------------------------
--11-11-11-11-12-12-12-12-14-14-14-14-16-16-1
---------------------------------------------
---------------------------------------------
---------------------------------------------


   S  S S S S S S S  S  S S S S S S S  
--------------------------------------|
--12-12-------------12-12-------------|
--12-12-------------12-12-------------|
--12-12-------------12-12-------------|
--10-10-------------10-10-------------|
--------------------------------------|


   S  S S S S S S S  S  S S S  S  S S S  
----------------------------------------|
--12-12---------------------------------|
--12-12---------------------------------|
--12-12-------------12-12-----12-12-----|
--10-10-------------12-12-----12-12-----|
--------------------10-10-----10-10-----|


   S  S S S S S S S  S  S S S S S S S  
--------------------------------------|
--12-12-------------12-12-------------|
--12-12-------------12-12-------------|
--12-12-------------12-12-------------|
--10-10-------------10-10-------------|
--------------------------------------|


   S  S S S S S S S  S  S S S  S  S S S  
----------------------------------------|
--12-12---------------------------------|
--12-12---------------------------------|
--12-12-------------12-12-----12-12-----|
--10-10-------------12-12-----12-12-----|
--------------------10-10-----10-10-----|


   S  S S S S S S S  S  S S S S S S S  
--------------------------------------|
--12-12-------------12-12-------------|
--12-12-------------12-12-------------|
--12-12-------------12-12-------------|
--10-10-------------10-10-------------|
--------------------------------------|


   S  S S S S S S S  S  S S S  S  S S S  
----------------------------------------|
--12-12---------------------------------|
--12-12---------------------------------|
--12-12-------------12-12-----12-12-----|
--10-10-------------12-12-----12-12-----|
--------------------10-10-----10-10-----|


   S  S S S S S S S  S  S S S S S S S  
--------------------------------------|
--12-12-------------12-12-------------|
--12-12-------------12-12-------------|
--12-12-------------12-12-------------|
--10-10-------------10-10-------------|
--------------------------------------|


   S  S S S S S S S  S  S S S  S  S S S  
----------------------------------------|
--12-12---------------------------------|
--12-12---------------------------------|
--12-12-------------12-12-----12-12-----|
--10-10-------------12-12-----12-12-----|
--------------------10-10-----10-10-----|


  S S S S E  S H        S  
--------------------------|
--------------------------|
--------------------------|
--4-5-4--------4----------|
--------5----5------------|
----------7---------------|


                     TP     
  S S S S E  E  Q    E  E   
---------------------------|
---------------------------|
---------------------------|
--4-5-4---------7----9-----|
--------5----5-------------|
----------7----------------|


  S S S S E  S H        S  
--------------------------|
--------------------------|
--------------------------|
--4-5-4--------4----------|
--------5----5------------|
----------7---------------|


                     TP     
  S S S S E  E  Q    E  E   
---------------------------|
---------------------------|
---------------------------|
--4-5-4---------7----9-----|
--------5----5-------------|
----------7----------------|


  S S S S E  S S S S E  S S S S  
--------------------------------|
--------------------------------|
--------------------------------|
--4-5-4------4-5-4------4-5-4---|
--------5----------5----------5-|
----------7----------7----------|


  S S S S E  S S S S E  S S S S  
--------------------------------|
--------------------------------|
--------------------------------|
--4-5-4------4-5-4------4-5-4---|
--------5----------5----------5-|
----------7----------7----------|


  S S S S S S S Q    Q    S  
----------------------------|
--------------4-5-----------|
--------4-5-7---------------|
--4-5-7---------------------|
----------------------------|
----------------------------|


   S  S  S  S  S  S  S  Q    Q    S  
-----------12-14-15-17-19-----------|
--12-14-15--------------------------|
------------------------------------|
------------------------------------|
------------------------------------|
------------------------------------|


   S  S S S S S S S  S  S S S S S S S  
--------------------------------------|
--12-12-------------12-12-------------|
--12-12-------------12-12-------------|
--12-12-------------12-12-------------|
--10-10-------------10-10-------------|
--------------------------------------|


   S  S S S S S S S  S  S S S  S  S S S  
----------------------------------------|
--12-12---------------------------------|
--12-12---------------------------------|
--12-12-------------12-12-----12-12-----|
--10-10-------------12-12-----12-12-----|
--------------------10-10-----10-10-----|


   S  S S S S S S S  S  S S S S S S S  
--------------------------------------|
--12-12-------------12-12-------------|
--12-12-------------12-12-------------|
--12-12-------------12-12-------------|
--10-10-------------10-10-------------|
--------------------------------------|


   S  S S S S S S S  S  S S S  S  S S S  
----------------------------------------|
--12-12---------------------------------|
--12-12---------------------------------|
--12-12-------------12-12-----12-12-----|
--10-10-------------12-12-----12-12-----|
--------------------10-10-----10-10-----|


   S  S S S S S S S  S  S S S S S S S  
--------------------------------------|
--12-12-------------12-12-------------|
--12-12-------------12-12-------------|
--12-12-------------12-12-------------|
--10-10-------------10-10-------------|
--------------------------------------|


   S  S S S S S S S  S  S S S  S  S S S  
----------------------------------------|
--12-12---------------------------------|
--12-12---------------------------------|
--12-12-------------12-12-----12-12-----|
--10-10-------------12-12-----12-12-----|
--------------------10-10-----10-10-----|


   S  S S S S S S S  S  S S S S S S S  
--------------------------------------|
--12-12-------------12-12-------------|
--12-12-------------12-12-------------|
--12-12-------------12-12-------------|
--10-10-------------10-10-------------|
--------------------------------------|


   S  S S S S S S S  S  S S S  S  S S S  
----------------------------------------|
--12-12---------------------------------|
--12-12---------------------------------|
--12-12-------------12-12-----12-12-----|
--10-10-------------12-12-----12-12-----|
--------------------10-10-----10-10-----|


  S S S S E  S E  S S S S E  S  
-------------------------------|
-------------------------------|
-------------------------------|
--4-5-4--------4--4-5-4--------|
--------5----5----------5----5-|
----------7---------------7----|


                     TP     
  S S S S E  E  Q    E  E   
---------------------------|
---------------------------|
---------------------------|
--4-5-4---------7----9-----|
--------5----5-------------|
----------7----------------|


  S S S S E  S E  S S S S E  S  
-------------------------------|
-------------------------------|
-------------------------------|
--4-5-4--------4--4-5-4--------|
--------5----5----------5----5-|
----------7---------------7----|


                     TP     
  S S S S E  E  Q    E  E   
---------------------------|
---------------------------|
---------------------------|
--4-5-4---------7----9-----|
--------5----5-------------|
----------7----------------|


  S S S S E  S E  S S S S E  S  
-------------------------------|
-------------------------------|
-------------------------------|
--4-5-4--------4--4-5-4--------|
--------5----5----------5----5-|
----------7---------------7----|


                     TP     
  S S S S E  E  Q    E  E   
---------------------------|
---------------------------|
---------------------------|
--4-5-4---------7----9-----|
--------5----5-------------|
----------7----------------|


  S S S S E  S E  S S S S E  S  
-------------------------------|
-------------------------------|
-------------------------------|
--4-5-4--------4--4-5-4--------|
--------5----5----------5----5-|
----------7---------------7----|


                     TP     
  S S S S E  E  Q    E  E   
---------------------------|
---------------------------|
---------------------------|
--4-5-4---------7----9-----|
--------5----5-------------|
----------7----------------|


   S  S  S  S  S  S  S  S S S S S S S S S  
------------------------------------------|
------------------------------------------|
--12-12-12-12-12-12-12-12-9-9-9-9-9-9-9-9-|
--12-12-12-12-12-12-12-12-9-9-9-9-9-9-9-9-|
--10-10-10-10-10-10-10-10-7-7-7-7-7-7-7-7-|
------------------------------------------|


  S S S S S S S S S S S S S S S S  
----------------------------------|
----------------------------------|
--4-4-4-4-4-4-4-4-7-7-7-7-7-7-7-7-|
--4-4-4-4-4-4-4-4-7-7-7-7-7-7-7-7-|
--2-2-2-2-2-2-2-2-5-5-5-5-5-5-5-5-|
----------------------------------|


   S  S  S  S  S  S  S  S S S S S S S S S  
------------------------------------------|
------------------------------------------|
--12-12-12-12-12-12-12-12-9-9-9-9-9-9-9-9-|
--12-12-12-12-12-12-12-12-9-9-9-9-9-9-9-9-|
--10-10-10-10-10-10-10-10-7-7-7-7-7-7-7-7-|
------------------------------------------|


  S S S S S S S S S S S S S S S S  
----------------------------------|
----------------------------------|
--4-4-4-4-4-4-4-4-7-7-7-7-7-7-7-7-|
--4-4-4-4-4-4-4-4-7-7-7-7-7-7-7-7-|
--2-2-2-2-2-2-2-2-5-5-5-5-5-5-5-5-|
----------------------------------|


   S  H          
---------------||
--12-12--------||
--12-12--------||
--12-12--------||
--10-10--------||
---------------||




Duration Legend
---------------
W - whole
H - half
Q - quarter
E - 8th
S - 16th
T - 32nd
X - 64th
. - note dotted
|-n-|  - n-tuplets


Tablature Legend
----------------
L - tied note
x - dead note
g - grace note
(n) - ghost note
> - accentuded note
NH - natural harmonic
AH - artificial harmonic
TH - tapped harmonic
SH - semi harmonic
PH - pitch harmonic
h - hammer on
p - pull off
b - bend
br - bendRelease
pb - preBend
pbr - preBendRelease
brb - bendReleaseBend
\n/ - tremolo bar dip
\n - tremolo bar dive
-/n - tremolo bar Release up
/n\ - tremolo bar inverted dip
/n - tremolo bar return
-\n - tremolo bar Release down
S - shift slide
s - legato slide
/ -  slide into from below or out of upwards
\ -  slide into from above or out of downwards
~ - vibrato
W - wide vibrato
tr - trill
TP - tremolo picking
T - tapping
S - slap
P - pop
< - fade in
^ - brush up
v - brush down
comments
print report bad tab
1 comment total.
0 reply
olmedb93 wrote on October 15 2013, 06:57 am

chorus


E|----------------------------|
B| x--x----x-x---x-x---x--x---|
G| x--x----x-x---x-x---x--x---|
D| 12-12---9-9---x-x---x--x---|
A| 10-10---7-7---9-9---12-12--|
e| x--x----x-x---7-7---10-10--| mas bien va el coro asi no ? :3
i think the chorus sounds better like
this . -brandon

I want to post or [tab]
guest
You may want to rate the tab now too:
select rating
Please do not post tabs as comments. Select "correction" instead!