Oops, an error
Loading. Please wait.

Danza Espanola No 5 Andaluza Tab

7,060 views 42 this week
no commentswrite comment
1 2 3 4 5
excellent!
x 2
add to favorites launch autoscroll
font size
0
reset
Autoscroll
+/-
esc
set tempo
stop
Contributor
WARNING: You are trying to view
                                    content from Ultimate-Guitar.com
                                    in an unauthorized application,
                                    which is prohibited.

                                    Please use an official Ultimate
                                    Guitar Tabs application for iPhone,
                                    iPad or Android to access legitimate
                                    chords, guitar, bass, and drum tabs
                                    from Ultimate-Guitar.com database.

                                    Type "ultimate guitar tabs" in Apple
                                    App Store's or Android Market's
                                    search to find the application.

e|-----------------------------------|---------------------------------------|
B|------------------0-----0-----0----|------------------0-----0-----0--------|
G|------------------0-----0-----0----|------------------0-----0-----0--------|
D|-----------------------------------|---------------------------------------|
A|----1-2--1-2--1-2---1-2---1-2------|----1-2--1-2--1-2---1-2---1-2----------|
E|-0---------------------------------|-0-------------------------------------|

e|----------------------------------|----------------------------------------|
B|----------0-----0-----0-----5-7-8-|-12-12----12-------10--12-----10--------|
G|----------0-----0-----0-----------|--------9----9-------------9-----9----9-|
D|----------------------------------|--------9----9--9----------10----10---10|
A|----------------------------------|----------10-----------9------------9---|
E|-0----6-7---6-7---6-7---6-7-------|----0-----------------------------------|

e|-------0----------------------------|--------------------------------------|
B|-12------0------0-----0-----0-----0-|---------0-----0-----0-----5-7-8------|
G|-----8---0------0-----0-----0-----0-|---------0-----0-----0----------------|
D|-----7------------------------------|--------------------------------------|
A|------------------------------------|--------------------------------------|
E|-7-----0----6-7---6-7---6-7---6-7---|-0---6-7---6-7---6-7---6-7------------|

e|----------------------------------------|-7--------------------------------|
B|-12-12----12-------10--12-----10--------|----7----------------0-----0-----0|
G|--------9----9-------------9-----9----9-|----5----4----4-------------------|
D|--------9----9--9----------10----10---10|-0-------5----5------5-----5-----5|
A|----------10-----------9------------9---|------------5----4-5---4-5---4-5--|
E|---0------------------------------------|-------3--------------------------|

e|----2--5----------------2--0--2----|-3-------------------------------------|
B|-3-------3---3---3---3-------------|----1----1-----1--------------7--5-----|
G|---------2---2---2---2-------------|----0----0-----0-----5-----5--5--------|
D|-0-----4---0---4---0---------------|------2--------------5-----5--5--------|
A|-----------------------------------|-3----------3------7----------0--------|
E|-----------------------------------|-------------------------8-------------|

e|-----------------------------------|---------------------------------------|
B|-5--8-----0------------------------|---------------------------5-7-8-------|
G|--------------0----0---0---0---0---|-------0-----0----0----0---------------|
D|-------9----9----9---9---9---9---9-|---------------------------------------|
A|-----------------------------------|---------------------------------------|
E|----0-----0------------------------|-0---7-----8----7----7-----------------|

e|-----------------------------------|---------------------------------------|
B|-12-12----12------10-12----13-----5|----8-8--------------7-----------------|
G|--------9----9----------9----------|----------0-------0--------8-----------|
D|--------9----9-9--------10---------|---------------------------7-----------|
A|----------10----------9------------|---------------------------------------|
E|-----0-------------------------7---|---------------------------------------|

e|-----------------------------------|---------------------------------------|
B|-5-----------------------7--5--7---|-5-----------------------7--5--7-------|
G|----4-----4----4----4-------5------|----0----0----0----0--------5----------|
D|----5-----5----5----5-------7------|----9----9----9----9--------7----------|
A|-------2----2----2----2------------|---------------------------------------|
E|-0---------------------------------|-0-----7----7----7----7----------------|

e|-----------------------------------|-0-------------------------------------|
B|-5-----------------------7--5--7---|---7--9--------------------------------|
G|----0----0----0----0--------5------|---------------------------------------|
D|----9----9----9----9--------7------|---------5----5----5-------------------|
A|-----------------------------------|---------7-----------------------------|
E|-0-----7----7----7----7------------|------0-----7----7----6-7--6-7--6-7----|

e|---------------------0------|-7---7---5---7---8--|-10---3---5---5----------|
B|-----------------------7--9-|-5---5---5---5---5--|-10---3---5---5----7-----|
G|----4---4---4---4-----------|-4---4-------4---5--|-7----4---5---5----------|
D|----6---6---6---6-----------|-5---5---7---5---7--|------5---4---4----------|
A|----------------------------|--------------------|-9-----------------------|
E|-0----7---7---7---7---------|--------------------|-------------------------|

e|-7----------------------0------------|-7-----------------------0-----------|
B|-7------7-----7----7----10------10---|-------7----7----7----7--10----10----|
G|-8------8-----8----8--------11-------|-------7----7----7----------11-------|
D|-9------9-----9----9--------11-------|----------------------------10-------|
A|------9---------------9--------------|-----9----9----9----9----------------|
E|-7---------7-------------------------|-7-----------------------------------|

e|-7---------------------------------|-----0----0----------------------------|
B|--------7---7----7-----------------|-----0----8------------7---------------|
G|--------7---7----7-----------------|-----------------------9---------------|
D|-----------------------------5-----|-9-9----9-------7--9-9----10---2-2---5-|
A|------9---9------------7--9--------|-----------------------------0---------|
E|-7-------------7-------------------|---0----------0------------------------|

e|-----------------------------------|--------------------------------0-------|
B|-----0------0----------------------|-----0------0-----0---0----7-------7----|
G|-----0------0--------6-------------|-----0------0-----0---0-----------------|
D|-5-------------------12------------|------------------------------7*0-------|
A|--------------4--9---------7-------|-7--------------------------------------|
E|-----------------------------------|-0------6-7---6-7---7----7--------------|

e|-------------------------------0---|---------------------------------------|
B|-8-------------------------7-----7-|----0----0----0----0------7--5--7------|
G|---0------0------0---0-------------|-12--------------------------5---------|
D|---9------9------9---9-------7*0---|-----------------------------7---------|
A|-----------------------------------|----10---10---10---10------------------|
E|-0----6-7----6-7---7----7----------|-0-----7----7----7-----7---------------|

e|-0-2-4-----------------------------|------------------0-2-3----------------|
B|--------------------------0---0----|---------------------------------------|
G|------------1---1-----1---1---1----|---------------------------------------|
D|-----------------------------------|---------------------------------------|
A|--------2-----2---1-2---2---2------|----0-2--2--2--2-----------------------|
E|-----0-----------------------------|-0-------------------------------------|

e|-7-7---7---5---|-7--0--2--4-|-5---5----4--|-2-------------|
B|---5---5-------|-5----------|-2---2-------|-4----4--5--7--|
G|---------------|------------|-------------|-2-------------|
D|---6---6---4---|-6----------|-4---4----2--|---------------|
A|---------------|------------|-------------|-2-------------|
E|---------------|------------|-------------|---------------|

e|-------------|--------------|---0----------|-0----9--7-----|
B|-9---9----7--|-9---2--4---5-|-7-7----7-----|-0----------9--|
G|-8---6-------|-6------------|---6--8-8---9-|-9-------------|
D|-------------|--------------|---6----7---6-|-6-------------|
A|-7---7----6--|-7------------|--------------|---------------|
E|-------------|--------------|--------------|---------------|

e|------------|-0-----9-7-----|-------------|-0----9--7------|
B|-7--5----7--|-9----------9--|-7---5----7--|-9--------------|
G|-6--4----8--|---------------|-6---4----8--|------------9---|
D|-7--6--9-9--|---------------|-7---6--9-9--|----------------|
A|------------|-7-------------|-------------|-7--------------|
E|---------7--|----0----------|----------7--|----0-----------|

e|---0--9--7--4--|---0--9--7-----|-2--2--2--|-4------0--2--4-|
B|-7-0-----------|-7-0--------4--|-2--2--4--|----------------|
G|-6-------------|-6-------------|-2--1--2--|-1--------------|
D|-7-6-----------|-7-6-----------|----------|----------------|
A|---------------|---------------|-------2--|-2---0----------|
E|---------------|---------------|----------|-0--------------|

e|-7--7---5--|-7--0--2--4--|-5--5---4--|-2-------0--2--------|
B|-5--5------|-5-----------|-2--2------|-0----4--------------|
G|-----------|-------------|-----------|---------------------|
D|-6--6---4--|-6-----------|-4--4---2--|---------------------|
A|-----------|-------------|-----------|-2-------------------|
E|-----------|-------------|-----------|---------------------|

e|-4--4---2--|-4------------|-2--2---0--|-0--9--7-----|
B|-4--4------|-2---2--4--5--|-2--0------|-0--------9--|
G|-----------|--------------|-2---2--1--|-1-----------|
D|-2--2---1--|-2------------|-----------|-------------|
A|-----------|--------------|-----------|-------------|
E|-----------|--------------|-----------|-------------|

e|-------------|-0------9--7--4--|------------|-0-------9--7--4--|
B|-7--5-----7--|-9---------------|-7--5----7--|-9----------------|
G|-6--4-----8--|-----------------|-6--4----8--|------------------|
D|-7--6--9--9--|-----------------|-7--6--9-9--|-9----------------|
A|-------------|-7---------------|------------|------------------|
E|----------7--|----0------------|---------7--|-12---0-----------|

e|-2--0--9--7--4--|-2--0--9--7--4--|-2--0--2--|-4----------------|
B|-2--0-----------|-2--0-----------|-2--0--4--|------------------|
G|-2--1-----------|-2--1-----------|-2--1--2--|-1----6--4--------|
D|----------------|----------------|----------|------------6-----|
A|----------------|----------------|-------2--|-2----------------|
E|----------------|----------------|----------|-0----------------|

e|-5------------------------|------------------------------------|
B|--------------------------|---0---0---0---0---0---0------------|
G|-5------------------------|---0---0---0---0---0---0------------|
D|-4----2---4---------------|-5----------------------------------|
A|-0------------------------|-----2---2---2---2---2--------------|
E|--------------------------|-0----------------------------------|

e|-----------------------------------|--------------|
B|----0---0---0---0-----0---0--------|------0-------|
G|----0---0---0---0-----0---0--------|--------------|
D|-----------------------------------|--------------|
A|-2----2---2---2-----2---2---2------|--------------|
E|-0---------------------------------|------0-------|
comments
We did not receive enough feedback on this tab! Please rate:
print report bad tab
1 2 3 4 5
I want to post or [tab]
guest
You may want to rate the tab now too:
select rating
Please do not post tabs as comments. Select "correction" instead!