Oops, an error
Loading. Please wait.

Escape Bass Tab

2,263 views 1 this week
no commentswrite comment
1 2 3 4 5
excellent!
x 2
Autoscroll
+/-
esc
set tempo
stop
Contributor
WARNING: You are trying to view
                                    content from Ultimate-Guitar.com
                                    in an unauthorized application,
                                    which is prohibited.

                                    Please use an official Ultimate
                                    Guitar Tabs application for iPhone,
                                    iPad or Android to access legitimate
                                    chords, guitar, bass, and drum tabs
                                    from Ultimate-Guitar.com database.

                                    Type "ultimate guitar tabs" in Apple
                                    App Store's or Android Market's
                                    search to find the application.
Song     :Escape Bass
Artist   :Enrique Iglesias
Tabbed By:Chirantan
E-Mail   :chirantan.pal@gmail.com


Guitar Intro:                                                            
G||-------------------|-------------------|-------------------|
D||-------------------|-------------------|-------------------|
A||-------------------|-------------------|-------------------|
E||-------------------|-------------------|-------------------|
                                                           
                    Bass Start:                                    
|-------------------|----------------------|-----------------------|
|-------------------|----------------------|-----------------------|
|-------------------|--2\------2-----------|-----------------------|
|-------------------|-------------------0--|--0--0--0--------------|
                                                              
                                                        
|----------------------|-----------------------|----------------------|
|----------------------|-----------------------|----------------------|
|----------------------|-----------------------|--2\------2-----------|
|--4\------4--------0--|--2--2--2--------------|-------------------0--|
                                                             
                                                       
|-----------------------|----------------------|-------------------------|
|-----------------------|----------------------|-------------------------|
|-----------------------|----------------------|--------------4----------|
|--0--0--0--------------|--4\------4--------0--|--2--2--2-------------2--|
                                                           
                                                        
|----------------------|-----------------------|----------------------|
|----------------------|-----------------------|----------------------|
|--2\------2-----------|-----------------------|----------------------|
|-------------------0--|--0--0--0--------------|--4\------4--------0--|
                                                          
                                                        
|-----------------------|-------------------|-------------------|
|-----------------------|-------------------|-------------------|
|-----------------------|-------------------|-------------------|
|--2--2--2--------------|-------------------|-------------------|

                                                                            
|-------------------|-------------------|-------------------|-------------------|
|-------------------|-------------------|-------------------|-------------------|
|-------------------|-------------------|-------------------|-------------------|
|-------------------|-------------------|-------------------|-------------------|

                                                                            
|-------------------|-------------------|-------------------|-------------------|
|-------------------|-------------------|-------------------|-------------------|
|-------------------|-------------------|-------------------|-------------------|
|-------------------|-------------------|-------------------|-------------------|
                                                             
                                                         
|-------------------|-------------------|----------------------|
|-------------------|-------------------|----------------------|
|-------------------|-------------------|--2\------2-----------|
|-------------------|-------------------|-------------------0--|
                                                           
                                                       
|-----------------------|----------------------|-----------------------|
|-----------------------|----------------------|-----------------------|
|-----------------------|----------------------|-----------------------|
|--0--0--0--------------|--4\------4--------0--|--2--2--2--------------|
                                                            
                                                        
|----------------------|-----------------------|----------------------|
|----------------------|-----------------------|----------------------|
|--2\------2-----------|-----------------------|----------------------|
|-------------------0--|--0--0--0--------------|--4\------4--------0--|
                                                          
                                                       
|-------------------------|----------------------|-----------------------|
|-------------------------|----------------------|-----------------------|
|--------------4----------|--2\------2-----------|-----------------------|
|--2--2--2-------------2--|-------------------0--|--0--0--0--------------|
                                                               
                                                         
|----------------------|-------------------------|---------------------|
|----------------------|-------------------------|--2------------------|
|----------------------|--------------4----------|---------------------|
|--4\------4--------0--|--2--2--2-------------2--|------------0--------|

                                                          
|----------------------|---------------------|----------------------|
|----------------------|--2------------------|----------------------|
|----------------------|---------------------|----------------------|
|--2-------------------|------------0--------|--2-------------------|
                                                                     
                                                         
|-----------------------|------------------------|--------------------------|
|-----------------------|------------------------|--------------------------|
|-----------------------|------------------------|--------------------------|
|--4\--------2\------2--|--0--0--0--0------L--0--|--2-----2-----2-----2-----|
                                                      
                                                         
|-------------------------|-------------------|-------------------|
|-------------------------|-------------------|-------------------|
|-------------------------|-------------------|-------------------|
|--2--2--2--2--2--2--2----|-------------------|-------------------|
                                                               
                                                         
|-------------------|---------------------|----------------------|
|-------------------|---------------1-----|----------------------|
|-------------------|---------------------|--2\------2-----------|
|-------------------|---------------------|-------------------0--|
                                                           
                                                       
|-----------------------|----------------------|-----------------------|
|-----------------------|----------------------|-----------------------|
|-----------------------|----------------------|-----------------------|
|--0--0--0--------------|--4\------4--------0--|--2--2--2--------------|
                                                              
                                                        
|----------------------|-----------------------|----------------------|
|----------------------|-----------------------|----------------------|
|--2\------2-----------|-----------------------|----------------------|
|-------------------0--|--0--0--0--------------|--4\------4--------0--|
                                                           
                                                       
|-------------------------|----------------------|-----------------------|
|-------------------------|----------------------|-----------------------|
|--------------4----------|--2\------2-----------|-----------------------|
|--2--2--2-------------2--|-------------------0--|--0--0--0--------------|
                                                              
                                                        
|----------------------|-----------------------|----------------------|
|----------------------|-----------------------|----------------------|
|----------------------|-----------------------|--2\------2-----------|
|--4\------4--------0--|--2--2--2--------------|-------------------0--|
                                                             
                                                       
|-----------------------|----------------------|-------------------------|
|-----------------------|----------------------|-------------------------|
|-----------------------|----------------------|--------------4----------|
|--0--0--0--------------|--4\------4--------0--|--2--2--2-------------2--|
                                                              
                                                        
|----------------------|-----------------------|----------------------|
|----------------------|-----------------------|----------------------|
|--2\------2-----------|-----------------------|----------------------|
|-------------------0--|--0--0--0--------------|--4\------4--------0--|
                                                         
                                                       
|-----------------------|----------------------|-----------------------|
|-----------------------|----------------------|-----------------------|
|-----------------------|--2\------2-----------|-----------------------|
|--2--2--2--------------|-------------------0--|--0--0--0--------------|
                                                                
                                                        
|----------------------|-------------------------|----------------------|
|----------------------|-------------------------|----------------------|
|----------------------|--------------4----------|--2\------2-----------|
|--4\------4--------0--|--2--2--2-------------2--|-------------------0--|
                                                           
                                                       
|-----------------------|----------------------|-----------------------|
|-----------------------|----------------------|-----------------------|
|-----------------------|----------------------|-----------------------|
|--0--0--0--------------|--4\------4--------0--|--2--2--2--------------|

 
|----------------------|-----------------------|----------------------|
|----------------------|-----------------------|----------------------|
|--2\------2-----------|-----------------------|----------------------|
|-------------------0--|--0--0--0--------------|--4\------4--------0--|
 
         
|-------------------------|-------------------|-------------------|
|--------------1----------|-------------------|-------------------|
|-------------------------|-------------------|-------------------|
|--2--2--2-------------2--|-------------------|-------------------|
comments
We did not receive enough feedback on this tab! Please rate:
print report bad tab
1 2 3 4 5
I want to post or [tab]
guest
You may want to rate the tab now too:
select rating
Please do not post tabs as comments. Select "correction" instead!