Oops, an error
Loading. Please wait.

Mothership Bass Tab

ver1
ver1

Whole song

Interactive

More versions @911Tabs.com
8,280 views 12 this week
6 commentsread comments
1 2 3 4 5
excellent!
x 4
Autoscroll
+/-
esc
set tempo
stop
Contributor
Difficulty
intermediate
WARNING: You are trying to view
                                    content from Ultimate-Guitar.com
                                    in an unauthorized application,
                                    which is prohibited.

                                    Please use an official Ultimate
                                    Guitar Tabs application for iPhone,
                                    iPad or Android to access legitimate
                                    chords, guitar, bass, and drum tabs
                                    from Ultimate-Guitar.com database.

                                    Type "ultimate guitar tabs" in Apple
                                    App Store's or Android Market's
                                    search to find the application.
Bass
                                      W                   W                 
F#||-------|-------|-------|-------|-------------------|-------------------|
C#||-------|-------|-------|-------|-------------------|-------------------|
G#||-------|-------|-------|-------|-------------------|-------------------|
C#||-------|-------|-------|-------|--0----------------|--L----------------|


  W                   W                   S S S S S S S S E  E  E  E   
-------------------|-------------------|------------------------------|
-------------------|-------------------|------------------------------|
-------------------|-------------------|------------------------------|
--L----------------|--0----------------|--0-0-0-0---0-0---0--0--0--0--|


  S S S S S S S H        S    S S S S S S S S E  E  E  E   
---------------------------|------------------------------|
---------------------------|------------------------------|
---------------------------|------------------------------|
--0-0-0-0---0-0-L--------L-|--0-0-0-0---0-0---0--0--0--0--|


  S S S S S S S H        S    S S S S S S S S E  E  E  E   
---------------------------|------------------------------|
---------------------------|------------------------------|
---------------------------|------------------------------|
--0-0-0-0---0-0-L--------L-|--0-0-0-0---0-0---0--0--0--0--|


  S S S S S S S H        S    S S S S S S S S E  E  E  E     W                 
---------------------------|------------------------------|-------------------|
---------------------------|------------------------------|-------------------|
---------------------------|------------------------------|-------------------|
--0-0-0-0---0-0-L--------L-|--0-0-0-0---0-0---0--0--0--0--|--0----------------|


  S S S S S S S S E  E  E  E     S S S S S S S H        S  
------------------------------|---------------------------|
------------------------------|---------------------------|
------------------------------|---------------------------|
--0-0-0-0---0-0---0--0--0--0--|--0-0-0-0---0-0-L--------L-|


  S S S S S S S S E  E  E  E     S S S S S S S H        S  
------------------------------|---------------------------|
------------------------------|---------------------------|
------------------------------|---------------------------|
--0-0-0-0---0-0---0--0--0--0--|--0-0-0-0---0-0-L--------L-|


  S S S S S S S S E  E  E  E     S S S S S S S H        S  
------------------------------|---------------------------|
------------------------------|---------------------------|
------------------------------|---------------------------|
--0-0-0-0---0-0---0--0--0--0--|--0-0-0-0---0-0-L--------L-|


  S S S S S S S S E  E  E  E     S S S S S S S H        S    W                 
------------------------------|---------------------------|-------------------|
------------------------------|---------------------------|-------------------|
------------------------------|---------------------------|-------------------|
--0-0-0-0---0-0---0--0--0--0--|--0-0-0-0---0-0-L--------L-|--0----------------|


  W                   W                   W                                     
-------------------|-------------------|-------------------|-------------------|
-------------------|-------------------|-------------------|-------------------|
-------------------|-------------------|-------------------|-------------------|
--L----------------|--L----------------|--L----------------|-------------------|


-------------------|-------------------|-------------------|
-------------------|-------------------|-------------------|
-------------------|-------------------|-------------------|
-------------------|-------------------|-------------------|


  E  E  E  E  E  E  E  E     E  E  E  E  E  E  E  E   
--------------------------|--------------------------|
--------------------------|--------------------------|
--------------------------|--------------------------|
--0--0--0--0-----0--0--0--|--2--2--2--2-----2--2--2--|


  E  E  E  E  E  E  E  E     E  E  E  E  E  E  E  E   
--------------------------|--------------------------|
--------------------------|--------------------------|
--------------------------|--------------------------|
--3--3--3--3-----3--3--3--|--5--5--5--5-----5--5--5--|


  E  E  E  E  E  E  E  E     E  E  E  E  E  E  E  E   
--------------------------|--------------------------|
--------------------------|--------------------------|
--------------------------|--------------------------|
--0--0--0--0-----0--0--0--|--2--2--2--2-----2--2--2--|


  E  E  E  E  E  E  E  E     E  E  E  E  E  E  E  E   
--------------------------|--------------------------|
--------------------------|--------------------------|
--------------------------|--------------------------|
--3--3--3--3-----3--3--3--|--5--5--5--5-----5--5--5--|


  S S S S S S S S E  E  E  E     S S S S S S S S E  Q.      
------------------------------|----------------------------|
------------------------------|----------------------------|
------------------------------|----------------------------|
--0-0-0-0---0-0---0--0--0--0--|--2-2-2-2---2-2---2---------|


  S S S S S S S S E  E  E  E     S S S S S S S S E  Q.      
------------------------------|----------------------------|
------------------------------|----------------------------|
------------------------------|----------------------------|
--3-3-3-3---3-3---3--3--3--3--|--5-5-5-5---5-5---5---------|


  S S S S S S S S E  E  E  E     S S S S S S S S E  Q.      
------------------------------|----------------------------|
------------------------------|----------------------------|
------------------------------|----------------------------|
--0-0-0-0---0-0---0--0--0--0--|--2-2-2-2---2-2---2---------|


  S S S S S S S S E  E  E  E     S S S S S S S S E  Q.      
------------------------------|----------------------------|
------------------------------|----------------------------|
------------------------------|----------------------------|
--3-3-3-3---3-3---3--3--3--3--|--5-5-5-5---5-5---5---------|


  S S S S S S S S E  E  E  E     S S S S S S S S E  Q.      
------------------------------|----------------------------|
------------------------------|----------------------------|
------------------------------|----------------------------|
--0-0-0-0---0-0---0--0--0--0--|--2-2-2-2---2-2---2---------|


  S S S S S S S S E  E  E  E     S S S S S S S S E  Q.      
------------------------------|----------------------------|
------------------------------|----------------------------|
------------------------------|----------------------------|
--3-3-3-3---3-3---3--3--3--3--|--5-5-5-5---5-5---5---------|


  S S S S S S S S E  E  E  E     S S S S S S S S E  Q.      
------------------------------|----------------------------|
------------------------------|----------------------------|
------------------------------|----------------------------|
--0-0-0-0---0-0---0--0--0--0--|--2-2-2-2---2-2---2---------|


  S S S S S S S S E  E  E  E     S S S S S S S S E  Q.      
------------------------------|----------------------------|
------------------------------|----------------------------|
------------------------------|----------------------------|
--3-3-3-3---3-3---3--3--3--3--|--5-5-5-5---5-5---5---------|


  E  S E  S Q     Q.        E  S E  S E  E   E  Q       E  S E  S Q     Q.      
-------------------------|---------------------------|-------------------------|
-------------------------|---------------------------|-------------------------|
-------------------------|---------------5s--7--8----|-------------------------|
--8----8----8\-----------|--7----7----7--------------|--8----8----8\-----------|


  E  S E  S E  E   E  Q       E  S E  S Q     Q.      
---------------------------|-------------------------|
---------------------------|-------------------------|
---------------5s--7--8----|-------------------------|
--7----7----7--------------|--8----8----8\-----------|


  E  S E  S E  E   E  Q       E  S E  S Q     Q.      
---------------------------|-------------------------|
---------------------------|-------------------------|
---------------5s--7--8----|-------------------------|
--7----7----7--------------|--8----8----8\-----------|


  E  S E  S E  E   E  Q       W                   W                 
---------------------------|-------------------|-------------------|
---------------------------|-------------------|-------------------|
---------------5s--7--8----|-------------------|-------------------|
--7----7----7--------------|--0----------------|--L----------------|


  E  E  E  E  E  E  E  E     E  E  E  E  E  E  E  E   
--------------------------|--------------------------|
--------------------------|--------------------------|
-----5--L--5--L--5--L--5--|--L--5--L--5--L--5--L--5--|
--0-----------------------|--------------------------|


  E   E  E   E  E   E  E   E     E   E  E   E  E   E  E   E   
------------------------------|------------------------------|
------------------------------|------------------------------|
-----12--L--12--L--12--L--12--|--L--12--L--12--L--12--L--12--|
------------------------------|------------------------------|


  E   E  E   E  E   E  E   E      E   E  E   E  E   E  E   E   
------------------------------|-------------------------------|
------------------------------|-------------------------------|
--L--12--L--12--L--12--L--15--|---L--15--L--15--L--15--L--15--|
------------------------------|-------------------------------|


  Q    Q    Q    Q       Q    Q    Q    Q       Q    Q    Q    Q     
----------------------|----------------------|----------------------|
----------------------|----------------------|----------------------|
----------------------|----------------------|----------------------|
--0----0----0----0----|--0----0----0----0----|--0----0----0----0----|


  Q    Q    Q    Q       E  E  E  E  E  E  E  E     E  E  E  E  E  E  E  E   
----------------------|--------------------------|--------------------------|
----------------------|--------------------------|--------------------------|
----------------------|--------------------------|--------------------------|
--0----0----0----0----|--8--8--8--8--8--8--8--8--|--8--7--7--7--7--7--7--7--|


  E  E  E  E  E  E  E  E      E   E   E   E   E   E   E   E   
--------------------------|----------------------------------|
--------------------------|----------------------------------|
--------------------------|----------------------------------|
--8--8--8--8--8--8--8--8--|--10--10--10--10--10--10--10--10--|


  Q    Q    Q    Q       Q    Q    Q    Q       Q    Q    Q    Q     
----------------------|----------------------|----------------------|
----------------------|----------------------|----------------------|
----------------------|----------------------|----------------------|
--0----0----0----0----|--0----0----0----0----|--0----0----0----0----|


  Q    Q    Q    Q       E  E  E  E  E  E  E  E     E  E  E  E  E  E  E  E   
----------------------|--------------------------|--------------------------|
----------------------|--------------------------|--------------------------|
----------------------|--------------------------|--------------------------|
--0----0----0----0----|--8--8--8--8--8--8--8--8--|--8--7--7--7--7--7--7--7--|


  E  E  E  E  E  E  E  E      E   E   E   E   E   E   E   E   
--------------------------|----------------------------------|
--------------------------|----------------------------------|
--------------------------|----------------------------------|
--8--8--8--8--8--8--8--8--|--10--10--10--10--10--10--10--10--|


  W                   W                   W                   W                 
-------------------|-------------------|-------------------|-------------------|
-------------------|-------------------|-------------------|-------------------|
-------------------|-------------------|-------------------|-------------------|
--0----------------|--L----------------|--0----------------|--L----------------|


  E  E  E  E  E  E  E  E     E  E  E  E  E  E  E  E   
--------------------------|--------------------------|
--------------------------|--------------------------|
--------------------------|--------------------------|
--0--0--0--0-----0--0--0--|--2--2--2--2-----2--2--2--|


  E  E  E  E  E  E  E  E     E  E  E  E  E  E  E  E   
--------------------------|--------------------------|
--------------------------|--------------------------|
--------------------------|--------------------------|
--3--3--3--3-----3--3--3--|--5--5--5--5-----5--5--5--|


  E  E  E  E  E  E  E  E     E  E  E  E  E  E  E  E   
--------------------------|--------------------------|
--------------------------|--------------------------|
--------------------------|--------------------------|
--0--0--0--0-----0--0--0--|--2--2--2--2-----2--2--2--|


  E  E  E  E  E  E  E  E     E  E  E  E  E  E  E  E   
--------------------------|--------------------------|
--------------------------|--------------------------|
--------------------------|--------------------------|
--3--3--3--3-----3--3--3--|--5--5--5--5-----5--5--5--|


  S S S S S S S S E  E  E  E     S S S S S S S S E  Q.      
------------------------------|----------------------------|
------------------------------|----------------------------|
------------------------------|----------------------------|
--0-0-0-0---0-0---0--0--0--0--|--2-2-2-2---2-2---2---------|


  S S S S S S S S E  E  E  E     S S S S S S S S E  Q.      
------------------------------|----------------------------|
------------------------------|----------------------------|
------------------------------|----------------------------|
--3-3-3-3---3-3---3--3--3--3--|--5-5-5-5---5-5---5---------|


  S S S S S S S S E  E  E  E     S S S S S S S S E  Q.      
------------------------------|----------------------------|
------------------------------|----------------------------|
------------------------------|----------------------------|
--0-0-0-0---0-0---0--0--0--0--|--2-2-2-2---2-2---2---------|


  S S S S S S S S E  E  E  E     S S S S S S S S E  Q.      
------------------------------|----------------------------|
------------------------------|----------------------------|
------------------------------|----------------------------|
--3-3-3-3---3-3---3--3--3--3--|--5-5-5-5---5-5---5---------|


  S S S S S S S S E  E  E  E     S S S S S S S S E  Q.      
------------------------------|----------------------------|
------------------------------|----------------------------|
------------------------------|----------------------------|
--0-0-0-0---0-0---0--0--0--0--|--2-2-2-2---2-2---2---------|


  S S S S S S S S E  E  E  E     S S S S S S S S E  Q.      
------------------------------|----------------------------|
------------------------------|----------------------------|
------------------------------|----------------------------|
--3-3-3-3---3-3---3--3--3--3--|--5-5-5-5---5-5---5---------|


  S S S S S S S S E  E  E  E     S S S S S S S S E  Q.      
------------------------------|----------------------------|
------------------------------|----------------------------|
------------------------------|----------------------------|
--0-0-0-0---0-0---0--0--0--0--|--2-2-2-2---2-2---2---------|


  S S S S S S S S E  E  E  E     S S S S S S S S E  Q.      
------------------------------|----------------------------|
------------------------------|----------------------------|
------------------------------|----------------------------|
--3-3-3-3---3-3---3--3--3--3--|--5-5-5-5---5-5---5---------|


  E  S E  S Q     Q.        E  S E  S E  E   E  Q       E  S E  S Q     Q.      
-------------------------|---------------------------|-------------------------|
-------------------------|---------------------------|-------------------------|
-------------------------|---------------5s--7--8----|-------------------------|
--8----8----8\-----------|--7----7----7--------------|--8----8----8\-----------|


  E  S E  S E  E   E  Q       E  S E  S Q     Q.      
---------------------------|-------------------------|
---------------------------|-------------------------|
---------------5s--7--8----|-------------------------|
--7----7----7--------------|--8----8----8\-----------|


  E  S E  S E  E   E  Q       E  S E  S Q     Q.      
---------------------------|-------------------------|
---------------------------|-------------------------|
---------------5s--7--8----|-------------------------|
--7----7----7--------------|--8----8----8\-----------|


  E  S E  S E  E   E  Q       Q    H.                                    
---------------------------|--------------------|-------|-------|-------|
---------------------------|--------------------|-------|-------|-------|
---------------5s--7--8----|--------------------|-------|-------|-------|
--7----7----7--------------|--0-----------------|-------|-------|-------|


  S S S S S S S S H           E  S S Q    S S S S Q     
---------------------------|---------------------------|
---------------------------|---------------------------|
---------------------------|---------------------------|
--0-0-0-0-0-0-0-0-0--------|--L--0-0-0----L-L-0-0-0----|


  S S S S S S S S H           E  S S Q    S S S S Q     
---------------------------|---------------------------|
---------------------------|---------------------------|
---------------------------|---------------------------|
--0-0-0-0-0-0-0-0-0--------|--L--0-0-0----L-L-0-0-0----|


  S S S S S S S S H           E  S S Q    S S S S Q     
---------------------------|---------------------------|
---------------------------|---------------------------|
---------------------------|---------------------------|
--0-0-0-0-0-0-0-0-0--------|--L--0-0-0----L-L-0-0-0----|


  S S S S S S S S H           E  S S Q    S S S S Q     
---------------------------|---------------------------|
---------------------------|---------------------------|
---------------------------|---------------------------|
--0-0-0-0-0-0-0-0-0--------|--L--0-0-0----L-L-0-0-0----|


  S S S S S S S S H           E  S S Q    S S S S Q     
---------------------------|---------------------------|
---------------------------|---------------------------|
---------------------------|---------------------------|
--3-3-3-3-3-3-3-3-3--------|--L--3-3-3----L-L-3-3-3----|


  S S S S S S S S H           E  S S Q    S S S S Q     
---------------------------|---------------------------|
---------------------------|---------------------------|
---------------------------|---------------------------|
--3-3-3-3-3-3-3-3-3--------|--L--5-5-5----L-L-5-5-5----|


  S S S S S S S S H           E  S S Q    S S S S Q     
---------------------------|---------------------------|
---------------------------|---------------------------|
---------------------------|---------------------------|
--0-0-0-0-0-0-0-0-0--------|--L--0-0-0----L-L-0-0-0----|


  S S S S S S S S H           E  S S Q    S S S S Q     
---------------------------|---------------------------|
---------------------------|---------------------------|
---------------------------|---------------------------|
--0-0-0-0-0-0-0-0-0--------|--L--0-0-0----L-L-0-0-0----|


  S S S S S S S S H           E  S S Q    S S S S Q     
---------------------------|---------------------------|
---------------------------|---------------------------|
---------------------------|---------------------------|
--3-3-3-3-3-3-3-3-3--------|--L--3-3-3----L-L-3-3-3----|


  S S S S S S S S H           E  S S Q    S S S S Q     
---------------------------|---------------------------|
---------------------------|---------------------------|
---------------------------|---------------------------|
--3-3-3-3-3-3-3-3-3--------|--L--5-5-5----L-L-5-5-5----|


  S S S S S S S S H           E  S S Q    S S S S Q     
---------------------------|---------------------------|
---------------------------|---------------------------|
---------------------------|---------------------------|
--0-0-0-0-0-0-0-0-0--------|--L--0-0-0----L-L-0-0-0----|


  S S S S S S S S H           E  S S Q    S S S S Q     
---------------------------|---------------------------|
---------------------------|---------------------------|
---------------------------|---------------------------|
--0-0-0-0-0-0-0-0-0--------|--L--0-0-0----L-L-0-0-0----|


  S S S S S S S S H           E  S S Q    S S S S Q     
---------------------------|---------------------------|
---------------------------|---------------------------|
---------------------------|---------------------------|
--3-3-3-3-3-3-3-3-3--------|--L--3-3-3----L-L-3-3-3----|


  S S S S S S S S H           E  S S Q    S S S S Q     
---------------------------|---------------------------|
---------------------------|---------------------------|
---------------------------|---------------------------|
--3-3-3-3-3-3-3-3-3--------|--L--5-5-5----L-L-5-5-5----|


  S S S S S S S S S S S Q    S                   
-------------------------------|-------|-------||
-------------------------------|-------|-------||
-------------------------------|-------|-------||
--0-0-0-0-0-0-0-0-0-0-0--------|-------|-------||




Duration Legend
---------------
W - whole
H - half
Q - quarter
E - 8th
S - 16th
T - 32nd
X - 64th
. - note dotted
|-n-|  - n-tuplets


Tablature Legend
----------------
L - tied note
x - dead note
g - grace note
(n) - ghost note
> - accentuded note
NH - natural harmonic
AH - artificial harmonic
TH - tapped harmonic
SH - semi harmonic
PH - pitch harmonic
h - hammer on
p - pull off
b - bend
br - bendRelease
pb - preBend
comments
print report bad tab
6 comments total. Showing first comments.
0 reply
Mon the Biffy wrote on March 28 2007, 01:15 pm

Well done mate, hard song to tab. its perfect.

0 reply
JimiDean wrote on July 21 2007, 10:05 am

what the **** does "L" mean?

0 reply
JimiDean wrote on July 21 2007, 10:05 am

what the **** is "L"?

I want to post or [tab]
guest
You may want to rate the tab now too:
select rating
Please do not post tabs as comments. Select "correction" instead!