Oops, an error
Loading. Please wait.

Take To The Skies Tab

1,625 views 3 this week
no commentswrite comment
1 2 3 4 5
excellent!
x 2
Autoscroll
+/-
esc
set tempo
stop
Contributor
Difficulty
Tuning
intermediate
C# G# C# F# A# D#
Hey! There's an official Ultimate Guitar app which is ideal
for learning songs when you're away from computer. Get the app
WARNING: You are trying to view
                                    content from Ultimate-Guitar.com
                                    in an unauthorized application,
                                    which is prohibited.

                                    Please use an official Ultimate
                                    Guitar Tabs application for iPhone,
                                    iPad or Android to access legitimate
                                    chords, guitar, bass, and drum tabs
                                    from Ultimate-Guitar.com database.

                                    Type "ultimate guitar tabs" in Apple
                                    App Store's or Android Market's
                                    search to find the application.
Artist: Enter Shikari
Album: Take To the Skies
track listing:
1."Stand Your Ground; This Is Ancient Land"
2."Enter Shikari"
3."Mothership"  4:30
4."Anything Can Happen in the Next Half Hour..."
5.
6."Labyrinth"  	3:51
7."No Sssweat"  3:16
8."Today Won’t Go Down in History"  3:34
9.
10."Return to Energiser" 4:35
11.
12."Sorry, You're Not a Winner" 3:52
13."Interlude 4" 0:35
14."Jonny Sniper" 4:01
15."Adieu" 5:40
16."OK Time for Plan B" 4:55
17."Closing" 2:44
===========================================================================
1."Stand Your Ground; This Is Ancient Land"

Tabbed by: Ben Hough
Email: ben_hough@hotmail.co.uk

Tuning: Normal


e|----------------------------------------------------------------|
B|5-4-5-4-5-4-5-4-5-4-5-4-5---------------------------------------|
G|--------------------------1-------------------------------------|
D|----------------------------------------------------------------|
A|----------------------------------------------------------------|
E|----------------------------------------------------------------|


e|----------------------------------------------------------------|
B|5-4-5-4-5-4-5-4-5-4-5-4-5-4-------------------9---9-------------|
G|----------------------------7---------------6---6---------------|
D|----------------------------------------------------------------|
A|----------------------------------------------------------------|
E|----------------------------------------------------------------|


      *Repeat that again, without the 6-9-6-9 bit on the 4th bar*
				Then...

e|----------------------------------------------------------------|
B|2->->->->->->->-9->->->->->->->-7->->->->->->->->->->->->->->->-|
G|----------------------------------------------------------------|
D|----------------------------------------------------------------|
A|----------------------------------------------------------------|
E|----------------------------------------------------------------|



| /  slide up
| \  slide down
| h  hammer-on
| p  pull-off
| ~  vibrato
| +  harmonic
| x  Mute note
===================================================================

2."Enter Shikari"


Tabbed By: Kiran Marshall

Tuning: Drop D flat

Eb
Bb
Gb
Db
Ab
Db

Although it may sound like it, there is no guitar on the 'SHIT!'

"I've been hiding here..." (you can work out the rhythm)

Eb|----------------|------------------------|
Bb|----------------|------------------6/11-o|
Gb|----------------|------------------9/14--|
Db|0-0-0-0-0-0-0-0-|-0-0-0-0-0-0-0-0--------|
Ab|0-0-0-0-0-0-0-0-|-0-0-0-0-0-0-0-0-------o|
Db|0-0-0-0-0-0-0-0-|-0-0-0-0-0-0-0-0--------|
   . . . . . . . .   . . . . . . . .

"Your life's about to flash..." (same rhythm as above)

Eb|----------------|--------------------|
Bb|----------------|-------------------o|
Gb|----------------|--------------------|
Db|0-0-0-0-0-0-0-0-|-0-0-0-0-0-0-0-0----|
Ab|0-0-0-0-0-0-0-0-|-0-0-0-0-0-0-0-0---o|
Db|0-0-0-0-0-0-0-0-|-0-0-0-0-0-0-0-0----|
   . . . . . . . .   . . . . . . . .

Build up: (straight eighths)

Eb|-----------------------------|
Bb|11-----13-----15-----17-----o|
Gb|14-x8--14-x8--14-x8--17-x8---|
Db|-----------------------------|
Ab|----------------------------o|
Db|-----------------------------|

"Stand your ground..."
(I'll write in the chord once, and you can work out the rhythm,
it's too hard and time consuming to tab. I will tab the palm muted chords fully, but not 
the rhythm)

Eb|---|----|---|---|---|----|------------|-------------|
Bb|---|----|---|---|---|----|------------|------------o|
Gb|---|----|---|---|---|----|------------|-------------|
Db|-8-|-10-|-5-|-7-|-8-|-10-|0-0-0-0-0-0-|0-0-0-0-0-0--|
Ab|-8-|-10-|-5-|-7-|-8-|-10-|0-0-0-0-0-0-|0-0-0-0-0-0-o|
Db|-8-|-10-|-5-|-7-|-8-|-10-|0-0-0-0-0-0-|0-0-0-0-0-0--|
                             . . . . . .  . . . . . .


"We're not hiding..."


Eb|--|-----|        |-|
Bb|--|----o|        |-|
Gb|--|-----|        |-|
Db|8-|-10--|x 3 then|0|
Ab|8-|-10-o|        |0|
Db|8-|-10--|        |0|

"I'm in the zone!"

Eb|--------------|-----------------|--------------|------------------|
Bb|--------11-11-|-----------------|--------11-11-|-----------------o|
Gb|--------14-14-|-----------------|--------14-14-|------------------|
Db|0-0-0-0-------|0-0-0-0-0-0------|0-0-0-0-------|0-0-0-0-0-0-------|
Ab|0-0-0-0-------|0-0-0-0-0-0------|0-0-0-0-------|0-0-0-0-0-0------o|
Db|0-0-0-0-------|0-0-0-0-0-0-0/5b-|0-0-0-0-------|0-0-0-0-0-0-0/5b--|
   . . . .        . . . . . .       . . . .        . . . . . .

"Alright!" - as above, but without the high 'clashy' chords.

"And still we will be here..."


Eb|--|--|----------------|-----------------|
Bb|--|--|----11-11-11-11-|----11-11-11-11--|
Gb|--|--|----14-14-14-14-|----14-14-14-14--|
Db|0-|0-|0-0-------------|0-0--------------|
Ab|0-|0-|0-0-------------|0-0--------------|
Db|0-|0-|0-0-------------|0-0--------------|
         . .              . .

Repeat the last 2 bars as necessary until the last bar, which looks like this:


Eb|-----------------|
Bb|----11-11-11-15--|
Gb|----14-14-14-14--|
Db|0-0--------------|
Ab|0-0--------------|
Db|0-0--------------|
===================================================================

3."Mothership"
This is a proper tab, made by enter shikari.
Hope you guys and girls enjoy it

It's played in drop C#, so basically drop D but all the strings tuned half a step down

H = hammer on
P = pull off
> = slide up

D*-----------   ------------------------------------|
A*-----------   ------------------------------------|
F*-----------   ------------------------------------| all tapped
C*0             -12-0-12-0-10-0-8-0-7-0-5-0-3-0-2-0-| with left hand
G*0             ------------------------------------|
C*0 let ring    ------------------------------------|

-------------------------|
-------------------------|
-------------------------|
-0000-00-0-0-0-0-0000-00-| x 3
-0000-00-0-0-0-0-0000-00-|
-0000-00-0-0-0-0-0000-00-|

------------------------------------------------------|
------------------------------------------------------|
---------------------------------------------7-7-7-9--|
-0000-00-0-0-0-0-h12p-0-h10-h12p-0-h8-h12p-0----------|
-0000-00-0-0-0-0-----------------------------8-8-8-10-|
-0000-00-0-0-0-0--------------------------------------|

-------------------------------------------------|
-------------------------------------------------|
-7-7-7-7-7-7-7-7-7-7-7-7-7-7-7-7-7-7-7-7-7-7-7-7-|
-0-0-0-0-0-0-0-0-0-0-0-0-0-0-0-0-0-0-0-0-0-0-0-0-|
-5-5-5-5-5-5-5-5-3-3-3-3-3-3-3-3-8-8-8-8-8-8-8-8-|
-------------------------------------------------|

-------------------------|
-------------------------|
--7--7--7--7--7--7--7--7-|
--0--0--0--0--0--0--0--0-|
-10-10-10-10-10-10-10-10-|
-------------------------|

-------------------------|
-------------------------|
-------------------------|
-0000-00-0-0-0-0-0000-00-| x 2
-0000-00-0-0-0-0-0000-00-|
-0000-00-0-0-0-0-0000-00-|

--------------------------------------------------------|
-------6---6---6---6---8---8---8---8---10--10--10--10---|
---------9---9---9---9---9---9---9---9---10--10--10--10-|
-0        ----------------------------------------------|
-0        ----------------------------------------------|
-0let ring----------------------------------------------|

------------------|
--8---8---8---8---|
---10--10--10--10-|
------------------|
------------------|
------------------|

-----------------------------------------------------|
-11--11--11-11-11--11--11--11--11--6--6-6-6--6--6--6-|
-14--14--14-14-14--14--14--14--14--9--9-9-9--9--9--9-| x4
-----------------------------------------------------|
-----------------------------------------------------|
-----------------------------------------------------|

Big Chorus Riff
------------------------------------------------------------|
------------------------------------------------------------|
------------------------------------------------------------|
------------------------------------------------------------|
----------7p-0-h8p-0-h7p-0-h5p-0-h3p-0-h5p-0---------3--3-3-|
-0-h7-h10------------------------------------0-h2-h3-2--2-2-|

¬---------------------------------------------------------------|
----------------------------------------------------------------|
-----12---------------------------------------------------------|
----------------------------------------------------------------|
->12-------------3---7p-0-h8p-0-h10p-0-h8p-0-h7p-0----------5---|
---------0-h3-h5-3----------------------------------0-h5-h7-5---|

-----------|
-----------|
-7-->9->10-| repeat whole chorus riff 4 times
-----------|
-8->10->12-|
-----------|

Bridge Riff
----------------------------------------|
----------------------------------------|
-7-7-7--7p-0-------------7-7-7--7->9>10-| x 4
-6-6-6-------h7p-0-h6p-0-5-5-5----------|
-8-8-8-------------------8-8-8--8>10>11-|
-6-6-6-------------------5-5-5----------|

Quiet bit (clean)
-----------------------------------------------|
-----------------------------------------------|
-10----10----10----10----12----12----9----9----|
--0-----0-----0-----0-----0-----0----0----0----| x 2
----12----12----12----12----13----13---10---10-|
-----0-----0-----0-----0-----0-----0----0----0-|

------------------------------------------------|
------------------------------------------------|
-10----10----10----10-----9----9----12----12----|
--8-----8-----8-----8-----8----8-----8-----8----|
----12----12----12----12----10---10----10----10-|
-----8-----8-----8-----8-----8----8-----8-----8-|

------------------------------------------------|
------------------------------------------------|
-10----10----10----10-----9----9----12----12----|
--8-----8-----8-----8-----8----8-----8-----8----|
----12----12----12----12------------------------|
-----8-----8-----8-----8----10---10----10----10-|

Disco BEAT (Dist)
--------------------------------------------------|
--------------------------------------------------|
-10-10------12-12---9--9--10-10------12-12---9--9-|
--------------------------------------------------|
-12-12------13-13--10-10--12-12------13-13--10-10-|
--------------------------------------------------|

(Clean)
------------------------------------------------|
------------------------------------------------|
-10----10----10----10-----9----9----12----12----|
--8-----8-----8-----8-----8----8-----8-----8----|
----12----12----12----12----10---10----10----10-|
-----8-----8-----8-----8-----8----8-----8-----8-|

------------------------------------------------|
------------------------------------------------|
-10----10----10----10-----9----9----12----12----|
--8-----8-----8-----8-----8----8-----8-----8----|
----12----12----12----12------------------------|
-----8-----8-----8-----8----10---10----10----10-|

Disco BEAT (Dist)
--------------------------------------------------|
--------------------------------------------------|
-10-10------12-12---9--9--10-10------12-12---9--9-|
--------------------------------------------------|
-12-12------13-13--10-10--12-12------13-13--10-10-|
--------------------------------------------------|

(Dist)
------------------------------------------------|
------------------------------------------------|
-10----10----10----10-----9----9----12----12----|
--8-----8-----8-----8-----8----8-----8-----8----|
----12----12----12----12----10---10----10----10-|
-----8-----8-----8-----8-----8----8-----8-----8-|

------------------------------------------------|
------------------------------------------------|
-10----10----10----10-----9----9----12----12----|
--8-----8-----8-----8-----8----8-----8-----8----|
----12----12----12----12------------------------|
-----8-----8-----8-----8----10---10----10----10-|

------------|
------------|
------------|
-0
-0
-0 let ring

small riff, pretty much all pull offs and hammer ons
----------------------------------|
----------------------------------|
--------9--0-10-0-9-0-7-0-5-0-7-0-|
-0-7-10---------------------------| x 8
----------------------------------|
----------------------------------|

Big Chorus Riff
------------------------------------------------------------|
------------------------------------------------------------|
------------------------------------------------------------|
------------------------------------------------------------|
----------7p-0-h8p-0-h7p-0-h5p-0-h3p-0-h5p-0---------3--3-3-|
-0-h7-h10------------------------------------0-h2-h3-2--2-2-|

¬---------------------------------------------------------------|
----------------------------------------------------------------|
-----12---------------------------------------------------------|
----------------------------------------------------------------|
->12-------------3---7p-0-h8p-0-h10p-0-h8p-0-h7p-0----------5---|
---------0-h3-h5-3----------------------------------0-h5-h7-5---|

-----------|
-----------|
-7-->9->10-| repeat whole chorus riff 4 times
-----------|
-8->10->12-|
-----------|

Bridge Riff
----------------------------------------|
----------------------------------------|
-7-7-7--7p-0-------------7-7-7--7->9>10-| x 4
-6-6-6-------h7p-0-h6p-0-5-5-5----------|
-8-8-8-------------------8-8-8--8>10>11-|
-6-6-6-------------------5-5-5----------|


--------------------------------------------------|
--------------------------------------------------|
-10-10------12-12---9--9--10-10------12-12---9--9-|
--------------------------------------------------|
-12-12------13-13--10-10--12-12------13-13--10-10-|
--------------------------------------------------|

WALK THE PLANK BRK DWN
---------------------------------------------|
---------------------------------------------|
---------------------------------------------|
-000000000----000--000-000000000----000--000-| x 2
-000000000----000--000-000000000----000--000-|
-000000000----000--000-000000000----000--000-|

---------------------------------------------------|
----------->11-11-11-------------------------------|
----------->14-14-14-------------------------------|
-333333333----------333--333-333333333----555--555-| x 2
-333333333----------333--333-333333333----555--555-|
-333333333----------333--333-333333333----555--555-|

----------------------------------------------------|
--------------------------------->11-11-11----------|
--------------------------------->14-14-14----------|
-000000000----000--000-333333333-----------555--555-| x 2
-000000000----000--000-333333333-----------555--555-|
-000000000----000--000-333333333-----------555--555-|

Funky riff
--------------------------------------|
--------------------------------------|
-----12--------17------>12--------17~-|
-------->14-------17-------->14-------|  x  2
->12--------15-------15---12----15----|
--------------------------------------|
=======================================================================

4."Anything Can Happen in the Next Half Hour..."

Tabbed by: FeebleGrind106

Tuning:(Db Ab Db Gb Bb Eb)

Well this is my first tab, so go easy!

.=Palm Mute
~=Let Ring
L,R=Tapping with Left and Right Hand
/=Slide Up

Intro:

(Keys) then,

  "Everything seems to..."
Eb|---------------------------------------------------|
Bb|------6------6------6-----6-----6---6------6-------|
Gb|------7------7------7-----7-----7---7------7-------|
Db|------7------7------7-----7-----7---7------7-------|(x2)
Ab|------5------5------5-----5-----5---5------5-------|
Db|------0------0------0-----0-----0---0------0-------|
         .      .      .     .     .   .      .

Eb|---------------------------------------------------|
Bb|---------------------------------------------------|
Gb|-----10-----10-----10----10----10--10-----10-------|
Db|------8------8------8-----8-----8---8------8-------|(x2)
Ab|------8------8------8-----8-----8---8------8-------|
Db|------8------8------8-----8-----8---8------8-------|
         .      .      .     .     .   .      .

Eb|---------------------------------------------------|
Bb|---------------------------------------------------|
Gb|------5------5------5-----5-----5---5------5-------|
Db|------3------3------3-----3-----3---3------3-------|(x2)
Ab|------3------3------3-----3-----3---3------3-------|
Db|------3------3------3-----3-----3---3------3-------|
         .      .      .     .     .   .      .

Eb|---------------------------------------------------|
Bb|---------------------------------------------------|
Gb|------7------7------7-----7-----7---7------7-------|
Db|------5------5------5-----5-----5---5------5-------|(x2)
Ab|------5------5------5-----5-----5---5------5-------|
Db|------5------5------5-----5-----5---5------5-------|
         .      .      .     .     .   .      .

Verse:

  "...Knew..."
Eb|---------------------------------------------------|
Bb|---------------------------------------------------|
Gb|-----------------------------------7h10------------|
Db|-0000--0000---0000----0000------0h7----------------|
Ab|-0000--0000---0000----0000-------------------------|
Db|-0000--0000---0000----0000-------------------------|
    ....  ....   ....    ....

Eb|---------------------------------------------------|
Bb|---------------------------------------------------|
Gb|-----------------------------------7h10------------|
Db|-8888--8888---8888----8888------0h7----------------|
Ab|-8888--8888---8888----8888-------------------------|
Db|-8888--8888---8888----8888-------------------------|
    ....  ....   ....    ....

Eb|---------------------------------------------------|
Bb|---------------------------------------------------|
Gb|-----------------------------------7h10------------|
Db|-3333--3333---3333----3333------0h7----------------|
Ab|-3333--3333---3333----3333-------------------------|
Db|-3333--3333---3333----3333-------------------------|
    ....  ....   ....    ....

Eb|---------------------------------------------------|
Bb|---------------------------------------------------|
Gb|---------------------------------------------------|
Db|-5555--5555---5555----5555-------------------------|
Ab|-5555--5555---5555----5555-------------------------|
Db|-5555--5555---5555----5555-------------------------|
    ....  ....   ....    ....

Eb|---------------------------------------------------|
Bb|---------------------------------------------------|
Gb|---------------------------------------------------|
Db|-0000~-0000~--0000~---0000~~-----------------------|
Ab|-0000~-0000~--0000~---0000~~-----------------------|
Db|-0000~-0000~--0000~---0000~~-----------------------|

Pre-Chorus:

Eb|---------------------------------------------------|
Bb|---------------------------------------------------|
Gb|---------------------------------------------------|
Db|-0000--0000---0000----0000-------------------------|(x2)
Ab|-0000--0000---0000----0000-------------------------|
Db|-0000--0000---0000----0000-------------------------|
    ....  ....   ....    ....

Eb|-------------------------3--3--3--3--5--5--5--5----|
Bb|-3--3--3--3--5--5--5--5--5--5--5--5--3--3--3--3----|
Gb|-2--2--2--2--2--2--2--2--2--2--2--2--2--2--2--2----|
Db|-0--0--0--0--0--0--0--0--0--0--0--0--0--0--0--0----|(x3)
Ab|---------------------------------------------------|
Db|---------------------------------------------------|

Chorus:

  "The curtain goes down..."
Eb|---------------------------------------------------------|
Bb|---------------------------------------------------------|
Gb|10-10-10-10-10-10-10-10-10-10-10-10-10-10-10-10-10-|-----|
Db|-8--8--8--8--8--8--8--8--8--8--8--8--8--8--8--8--8-|  ---|
Ab|-8--8--8--8--8--8--8--8--8--8--8--8--8--8--8--8--8-|  ---|
Db|-8--8--8--8--8--8--8--8--8--8--8--8--8--8--8--8--8-|  ---|
                                                          |-(x3)
Eb|---------------------------------------------------|  ---|
Bb|---------------------------------------------------|  ---|
Gb|10-10-10-10-10-10-10-10-10-10-10-10-10-10-10-10-10-|  ---|
Db|-7--7--7--7--7--7--7--7--7--7--7--7--7--7--7--7--7-|-----|
Ab|-7--7--7--7--7--7--7--7--7--7--7--7--7--7--7--7--7-------|
Db|-7--7--7--7--7--7--7--7--7--7--7--7--7--7--7--7--7-------|

Eb|---------------------------------------------------|
Bb|---------------------------------------------------|
Gb|10-10-10-10-10-10-10-10-10-10-10-10-10-10-10-10-10-|
Db|-8--8--8--8--8--8--8--8--8--8--8--8--8--8--8--8--8-|
Ab|-8--8--8--8--8--8--8--8--8--8--8--8--8--8--8--8--8-|
Db|-8--8--8--8--8--8--8--8--8--8--8--8--8--8--8--8--8-|

Eb|---------------------------------------------------|
Bb|---------------------------------------------------|
Gb|10--10--10--10--10--10--10--10---------------------|
Db|-7---7---7---7---7---7---7---7----7----7----7------|
Ab|-7---7---7---7---7---7---7---7----7----7----7------|
Db|-7---7---7---7---7---7---7---7----7----7----7------|

Tapping Riff:

      L  R  R   L  R   L  R   L  R  R   L  R   L  R
Eb|---------------------------------------------------|
Bb|---------------------------------------------------|
Gb|---------------------------------------------------|
Db|-0-7-12/15-0-7-14-0-7-12-0-7-15/19-0-7-17-0-7-15-0-|
Ab|---------------------------------------------------|
Db|---------------------------------------------------|

      L  R   L  R
Eb|---------------------------------------------------|
Bb|-----------------6-6-------------------------------|
Gb|-----------------7-7-------------------------------|
Db|-0-7-14-0-7-12-0-7-7-------------------------------|
Ab|-----------------5-5-------------------------------|
Db|-----------------0-0-------------------------------|

Intro:

  "Everything seems to..."
Eb|---------------------------------------------------|
Bb|------6------6------6-----6-----6---6------6-------|
Gb|------7------7------7-----7-----7---7------7-------|
Db|------7------7------7-----7-----7---7------7-------|(x2)
Ab|------5------5------5-----5-----5---5------5-------|
Db|------0------0------0-----0-----0---0------0-------|
         .      .      .     .     .   .      .

Eb|---------------------------------------------------|
Bb|---------------------------------------------------|
Gb|-----10-----10-----10----10----10--10-----10-------|
Db|------8------8------8-----8-----8---8------8-------|(x2)
Ab|------8------8------8-----8-----8---8------8-------|
Db|------8------8------8-----8-----8---8------8-------|
         .      .      .     .     .   .      .

Eb|---------------------------------------------------|
Bb|---------------------------------------------------|
Gb|------5------5------5-----5-----5---5------5-------|
Db|------3------3------3-----3-----3---3------3-------|(x2)
Ab|------3------3------3-----3-----3---3------3-------|
Db|------3------3------3-----3-----3---3------3-------|
         .      .      .     .     .   .      .

Eb|---------------------------------------------------|
Bb|---------------------------------------------------|
Gb|------7------7------7-----7-----7---7------7-------|
Db|------5------5------5-----5-----5---5------5-------|(x2)
Ab|------5------5------5-----5-----5---5------5-------|
Db|------5------5------5-----5-----5---5------5-------|
         .      .      .     .     .   .      .

  "...his stare..."
Eb|---------------------------------------------------|
Bb|---------------------------------------------------|
Gb|-----------------------------------7h10------------|
Db|-0000--0000---0000----0000------0h7----------------|
Ab|-0000--0000---0000----0000-------------------------|
Db|-0000--0000---0000----0000-------------------------|
    ....  ....   ....    ....

Eb|---------------------------------------------------|
Bb|---------------------------------------------------|
Gb|-----------------------------------7h10------------|
Db|-8888--8888---8888----8888------0h7----------------|
Ab|-8888--8888---8888----8888-------------------------|
Db|-8888--8888---8888----8888-------------------------|
    ....  ....   ....    ....

Eb|---------------------------------------------------|
Bb|---------------------------------------------------|
Gb|-----------------------------------7h10------------|
Db|-3333--3333---3333----3333------0h7----------------|
Ab|-3333--3333---3333----3333-------------------------|
Db|-3333--3333---3333----3333-------------------------|
    ....  ....   ....    ....

Eb|---------------------------------------------------|
Bb|---------------------------------------------------|
Gb|---------------------------------------------------|
Db|-5555--5555---5555----5555-------------------------|
Ab|-5555--5555---5555----5555-------------------------|
Db|-5555--5555---5555----5555-------------------------|
    ....  ....   ....    ....

Interlude:(Clean)

Eb|---------------------------------------------------|
Bb|---------13~~----11~10~----------------------------|
Gb|-----10~~-----------------9~---10~---9~---10~---9~-|
Db|-12~~--------12~~------12~--12~---12~--12~---12~---|
Ab|---------------------------------------------------|
Db|---------------------------------------------------|

Eb|---------------------------------------------------|
Bb|---------11~~----10~-------------------------------|
Gb|-----10~~-----------12~---9~---10~---9~---10~---9~-|
Db|-10~~--------10~~------10~--10~---10~--10~---10~---|
Ab|---------------------------------------------------|
Db|---------------------------------------------------|

Eb|---------------------------------------------------|
Bb|--------10~~---8~----------------------------------|
Gb|----10~~---------10~--9~--10~--9~--10~--9~---------|
Db|-8~~--------8~~-----8~--8~---8~--8~---8~-----------|(x2)
Ab|---------------------------------------------------|
Db|---------------------------------------------------|

  "We've had this..."
Eb|---------------------------------------------------|
Bb|---------13~~----11~10~----------------------------|
Gb|-----10~~-----------------9~---10~---9~---10~---9~-|
Db|-12~~--------12~~------12~--12~---12~--12~---12~---|
Ab|---------------------------------------------------|
Db|---------------------------------------------------|

Eb|---------------------------------------------------|
Bb|---------11~~----10~-------------------------------|
Gb|-----10~~-----------12~---9~---10~---9~---10~---9~-|
Db|-10~~--------10~~------10~--10~---10~--10~---10~---|
Ab|---------------------------------------------------|
Db|---------------------------------------------------|

Eb|---------------------------------------------------|
Bb|--------10-----8-----------------------------------|
Gb|----10-----------10---9---10---9---10---9----------|
Db|-8----------8-------8---8----8---8----8------------|(x2)
Ab|---------------------------------------------------|
Db|---------------------------------------------------|
    .   .   .  .  .  . . . .  . . . .  . . .

Again:"We've had this..."

Eb|---------------------------------------------------|
Bb|---------13~~----11~10~----------------------------|
Gb|-----10~~-----------------9~---10~---9~---10~---9~-|
Db|-12~~--------12~~------12~--12~---12~--12~---12~---|
Ab|---------------------------------------------------|
Db|---------------------------------------------------|

Eb|---------------------------------------------------|
Bb|---------11~~----10~-------------------------------|
Gb|-----10~~-----------12~---9~---10~---9~---10~---9~-|
Db|-10~~--------10~~------10~--10~---10~--10~---10~---|
Ab|---------------------------------------------------|
Db|---------------------------------------------------|

Eb|---------------------------------------------------|
Bb|--------10-----8-----------------------------------|
Gb|----10-----------10---9---10---9---10---9----------|
Db|-8----------8-------8---8----8---8----8------------|(x2)
Ab|---------------------------------------------------|
Db|---------------------------------------------------|
    .   .   .  .  .  . . . .  . . . .  . . .

Eb|-------------------------3--3--3--3--5--5--5--5----|
Bb|-3--3--3--3--5--5--5--5--5--5--5--5--3--3--3--3----|
Gb|-2--2--2--2--2--2--2--2--2--2--2--2--2--2--2--2----|
Db|-0--0--0--0--0--0--0--0--0--0--0--0--0--0--0--0----|
Ab|---------------------------------------------------|
Db|---------------------------------------------------|

Chorus:

Eb|---------------------------------------------------------|
Bb|---------------------------------------------------------|
Gb|10-10-10-10-10-10-10-10-10-10-10-10-10-10-10-10-10-|-----|
Db|-8--8--8--8--8--8--8--8--8--8--8--8--8--8--8--8--8-|  ---|
Ab|-8--8--8--8--8--8--8--8--8--8--8--8--8--8--8--8--8-|  ---|
Db|-8--8--8--8--8--8--8--8--8--8--8--8--8--8--8--8--8-|  ---|
                                                          |-(x4)
Eb|---------------------------------------------------|  ---|
Bb|---------------------------------------------------|  ---|
Gb|10-10-10-10-10-10-10-10-10-10-10-10-10-10-10-10-10-|  ---|
Db|-7--7--7--7--7--7--7--7--7--7--7--7--7--7--7--7--7-|-----|
Ab|-7--7--7--7--7--7--7--7--7--7--7--7--7--7--7--7--7-------|
Db|-7--7--7--7--7--7--7--7--7--7--7--7--7--7--7--7--7-------|

Outro:

  "Who remains when the curtain falls..."
Eb|---------------------------------------------------|
Bb|---------------------------------------------------|
Gb|---------------------------------------------------|
Db|-888--8--888--0-0~~--8--8--888--8--8--8------------|
Ab|-888--8--888--0-0~~--8--8--888--8--8--8------------|
Db|-888--8--888--0-0~~--8--8--888--8--8--8------------|

Eb|---------------------------------------------------|
Bb|---------------------------------------------------|
Gb|---------------------------------------------------|
Db|10-10-10-10-10-10-10-10-10-10-10-10-10-10-10-10-10-|
Ab|10-10-10-10-10-10-10-10-10-10-10-10-10-10-10-10-10-|
Db|10-10-10-10-10-10-10-10-10-10-10-10-10-10-10-10-10-|

Eb|---------------------------------------------------|
Bb|---------------------------------------------------|
Gb|---------------------------------------------------|
Db|-888--8--888--0-0~~--8--8--888--8--8--8------------|
Ab|-888--8--888--0-0~~--8--8--888--8--8--8------------|
Db|-888--8--888--0-0~~--8--8--888--8--8--8------------|

Eb|---------------------------------------------------|
Bb|---------------------------------------------------|
Gb|---------------------------------------------------|
Db|10--10--10--10--10--10--10--10----7----7----7------|
Ab|10--10--10--10--10--10--10--10----7----7----7------|
Db|10--10--10--10--10--10--10--10----7----7----7------|

Ending: Tapping Riff

      L  R  R   L  R   L  R   L  R  R   L  R   L  R
Eb|---------------------------------------------------|
Bb|---------------------------------------------------|
Gb|---------------------------------------------------|
Db|-0-7-12/15-0-7-14-0-7-12-0-7-15/19-0-7-17-0-7-15-0-|
Ab|---------------------------------------------------|
Db|---------------------------------------------------|

      L  R   L  R
Eb|---------------------------------------------------|
Bb|---------------------------------------------------|
Gb|---------------------------------------------------|
Db|-0-7-14-0-7-12-------------------------------------|
Ab|---------------------------------------------------|
Db|---------------------------------------------------|

      L  R  R   L  R   L  R   L  R  R   L  R   L  R
Eb|---------------------------------------------------|
Bb|---------------------------------------------------|
Gb|---------------------------------------------------|
Db|-0-7-12/15-0-7-14-0-7-12-0-7-15/19-0-7-17-0-7-15-0-|
Ab|---------------------------------------------------|
Db|---------------------------------------------------|

      L  R
Eb|---------------------------------------------------|
Bb|----------6-6--------------------------------------|
Gb|----------7-7--------------------------------------|
Db|-0-7-14-0-7-7--------------------------------------|
Ab|----------5-5--------------------------------------|
Db|----------0-0--------------------------------------|
=======================================================================

6."Labyrinth"

Tabbed by: Fear-Of-Death
Email:fear-of-death@hotmail.co.uk

Tuning:Db,Ab,Db,Gb,Bb,eb
Intro/Chorus
e|-----|-------------------------|
B|-----|-------------------------|
G|-----|-------------------------|
D|-10\-|--7--88---33-5-3-5-3---0-|x4
A|-10\-|--5--88---33-5-3-5-3---0-|
D|-10\-|-----88---33-5-3-5-3---0-|


Verse (Heavy Dist.)
|--------------------------------------------------------------------------|
|--55555555--77777777--10-10-10-10-10-10-10-10--11-11-11-11--12-12-12-12---|
|--77777777--99999999--10-10-10-10-10-10-10-10--12-12-12-12--13-13-13-13---|
|--------------------------------------------------------------------------|
|--------------------------------------------------------------------------|
|--------------------------------------------------------------------------|

|--------------------------------------------------------------------------|
|--55555555--77777777--12-12-12-12-12-12-12-12--11-11-11-11--10-10-10-10---|
|--77777777--99999999--13-13-13-13-13-13-13-13--12-12-12-12--10-10-10-10---|
|--------------------------------------------------------------------------|
|--------------------------------------------------------------------------|
|--------------------------------------------------------------------------|


Verse (Clean)
|--55555555--77777777--10-10-10-10-10-10-10-10--12-12-12-12--11-11-11-11---|
|--55555555--77777777--10-10-10-10-10-10-10-10--12-12-12-12--11-11-11-11---|
|--77777777--99999999--10-10-10-10-10-10-10-10--13-13-13-13--12-12-12-12---|
|--------------------------------------------------------------------------|
|--------------------------------------------------------------------------|
|--------------------------------------------------------------------------|

|--55555555--77777777-----55555555--77777777------|
|--55555555--77777777-----55555555--77777777------|
|--77777777--99999999-----77777777--99999999------|
|----------------------0*-------------------------|
|----------------------0*-------------------------|
|----------------------0*-------------------------|
			*Hold


Chorus

Verse

interlude (part one)
|--------------------------------------------------------------------------|
|--------------------------------------------------------------------------|
|--------------------------------------------------------------------------|
|--------------------------------------------------------------------------|
|--------------------------------------------------------------------------|
|--------------------------------------------------------------------------|


interlude (part two)

|-------0------0------0------0------0------0------0------0-----------------|
|-------3------3------3------3------0------0------0------0-----------------|
|--------------------------------------------------------------------------|
|--00-----00-----00-----00-----44-----44-----44-----44---------------------|
|--00-----00-----00-----00-----44-----44-----44-----44---------------------|
|--00-----00-----00-----00-----44-----44-----44-----44---------------------|
   pm	  pm	 pm	pm     pm     pm     pm	    pm

|------0------0------0------0------00-----00------0------------------------|
|------X------x------x------x------00-----33------0------------------------|
|------7------7------7------7----------------------------------------------|
|--77-----77-----77-----77-----00------00-----00----0*---------------------|
|--77-----77-----77-----77-----00------00-----00----0*---------------------|
|--77-----77-----77-----77-----00------00-----00----0*---------------------|
   pm	  pm	 pm	pm     pm      pm     pm     Hold


Chorus
==========================================================================

7."No Sssweat"
tabbed by DavidBenyamin

"Where's your respect!(?)"
D#|---------------------------|
A#|---------------------------|
F#|---------------------------|
C#|-12-------8--------11------|8x
G#|-12-------8--------11------|
C#|-12-------8--------11------|

Obviously these cords are strum more then once, figure out for urself.
They are strum very fast in an constant tempo after each other.

D#|---------------------|
A#|---------------------|
F#|---------------------|
C#|--12~-------12~------|
G#|--12~-------12~------|
C#|--12~-------12~------|
This one is played once, before the first verse, when the song calms down.

"Not even salt can make your hands taste good"
D#|------------------------------------------------------------------------------|
A#|------------------------------------------------------------------------------|
F#|-14-14-14-14-14-14-14-14-9-9-9-9-9-9-9-9-1010101010101010101010101010101012---|
C#|-12-12-12-12-12-12-12-12-7-7-7-7-7-7-7-7-8-8-8-8-8-8-8-8-8-8-8-8-8-8-8-8-10---|
G#|-12-12-12-12-12-12-12-12-7-7-7-7-7-7-7-7-8-8-8-8-8-8-8-8-8-8-8-8-8-8-8-8-10---|
C#|-12-12-12-12-12-12-12-12-7-7-7-7-7-7-7-7-8-8-8-8-8-8-8-8-8-8-8-8-8-8-8-8-10---|

In between he slides from the 8 and the 7 down to 0 on the middle(high) C# string.
He uses a pedal for this part (atleast thats how I get the same sound).

"You do this every fucking time!!"
D#|----------------------------------|
A#|----------------------------------|
F#|------------------------10--12----|
C#|------------------------8---10----|
G#|-0-0------0-0-0-------0-8-0-10----|
C#|-0-0------0-0-0-------0-8-0-10----|

D#|----------------------------------|
A#|----------------------------------|
F#|------------------------12---10---|
C#|------------------------10---8----|
G#|-0-0------0-0-0-------0-10-0-8----|
C#|-0-0------0-0-0-------0-10-0-8----|
repeat both lines after each other.

"Blood fills your palms"
D#|-------------------|
A#|-------------------|
F#|--------7-7-666>7--|2x
C#|--------x-x-xxx-x--|
G#|-8-8----5-5-333>5--|
C#|-8-8---------------|

D#|-------------------|
A#|-------------------|
F#|--------7-7-666>7--|2x
C#|--------x-x-xxx-x--|
G#|-0-0----5-5-333>5--|
C#|-0-0---------------|

D#|----------------------------------|
A#|----------------------------------|
F#|-9-9-9---9-9-9---101010--101010---|
C#|-7-7-7---7-7-7---8-8-8---8-8-8----|
G#|-7-7-7---7-7-7---8-8-8---8-8-8----|
C#|-7-7-7---7-7-7---8-8-8---8-8-8----|

repeat that scheme twice. Then start over at the beginning of the tab again.
The first 2 schemes are repeated again in this part.
===========================================================================

8."Today Won’t Go Down in History"
tabbed by Eche

eb|-------------------------------------------------------|
Bb|-------------------------------------------------------|
Gb|------------------------------2-----------0---0---0----|
Db|----2/3-0-2-2/3-0---2/3-0-2-3---3/2-0-2-3---0---0------|
Ab|-------------------------------------------------------|
Db|--0---------------0------------------------------------|

eb|-------------------------------------------------------|
Bb|-------------------------------------------------------|
Gb|------------------------------2------------------------|
Db|----2/3-0-2-2/3-0---2/3-0-2-3---3-0-3/2-0-2-3----------|
Ab|-------------------------------------------------------|
Db|--0---------------0------------------------------------|

eb|-------------------------------------------------------|
Bb|------------------------------------------5------------|
Gb|------------------------------------5-------5----------|
Db|------7h8---8-----8p7---------7-------7-------7--------|
Ab|----5-----5---5-------5-----5---5-------5--------------|
Db|--5-------------5---------8-------8--------------------|

                 You might never meet me...
eb|-------------------------------------------------------|
Bb|------------------------------------5------------------|
Gb|------------------------------------5------------------|
Db|------7h8---8-----8p7---------7-----7------------------|
Ab|----5-----5---5-------5-----5---5---5------------------|
Db|--5-------------5---------8-------8-8------------------|

Play the intro again until you get to this part again, where there are
a few small changes:

    "Into certain death..."
eb|-------------------------------------------------------|
Bb|------------------------------------------5------------|
Gb|------------------------------------5-------5----------|
Db|------7h8---8-----8p7---------7-------7-------7--------|
Ab|----5-----5---5-------5-----5---5-------5--------------|
Db|--5-------------5---------8-------8--------------------|

eb|-------------------------------------------------------|
Bb|-------------------------------------------------------|
Gb|------------------------------------5------------------|
Db|------7h8---8-----8p7---------7-------7---7---7--------|
Ab|----5-----5---5-------5-----5---5-------5---5----------|
Db|--5-------------5---------8-------8--------------------|

eb|-------------------------------------------------------|
Bb|-----------------------------------------5-------------|
Gb|-----------------------------------5-------5-----------|
Db|------7h8---8-----8p7--------7-------7-------7---------|
Ab|----5-----5---5-------5----5---5-------5---------------|
Db|--5-------------5--------8-------8---------------------|

eb|-------------------------------------------------------|
Bb|------------------------------------5------------------|
Gb|------------------------------------5------------------|
Db|------7h8---8-----8p7---------7-----7------------------|
Ab|----5-----5---5-------5-----5---5---5------------------|
Db|--5-------------5---------8-------8--------------------|

Then comes the "feel alive" part where you just play the same
notes:

eb|-------------------------------------------------------|
Bb|-------------------------------------------------------|
Gb|-------------------------------------------------------|
Db|-------------------------------------------------------|
Ab|-------------------------------------------------------|
Db|--0-0-0-0-0-0-0-0--------------------------------------|
                                                          (X8)

eb|-------------------------------------------------------|
Bb|-------------------------------------------------------|
Gb|-------------------------------------------------------|
Db|-------------------------------------------------------|
Ab|-------------------------------------------------------|
Db|--/12-12-12-12-12-12-12-12-----------------------------|
                                                          (X6)

eb|-------------------------------------------------------|
Bb|-------------------------------------------------------|
Gb|-------------------------------------------------------|
Db|-------------------------------------------------------|
Ab|-------------------------------------------------------|
Db|--/14-14-14-14-14-14-14-14-----------------------------|
                                                           (X2)

    "And I wanted you to know    I never ment for this"
eb|--8------------------8--------8-----------8------------|
Bb|--6------------------6--------6-----------6------------|
Gb|--x------------------x--------x-----------x------------|
Db|--7------------------7------- 7-----------7------------|
Ab|--5------------------7--------8-----------7------------|
Db|--0-(X16)--------------(X8)-----(X4)--------(X4)-------|
                                                          (X4)
    "...Today won't go down in history, so shut your eyes"
eb|--8-----------------8----------8--------8--------------|
Bb|--6-----------------6----------6--------6--------------|
Gb|--x-----------------7----------7--------7--------------|
Db|--7-----------------5----------7--------8--------------|
Ab|--5----------------------------------------------------|
Db|--0-(X8)-------------(X8)-------(X8)-----(X8)----------|

eb|--5-----------5--5---5--5--17--5------------------------|
Bb|--6----6---5--6----8----6--18--6------------------------|
Gb|--7--7---7----7---------7------7------------------------|
Db|--7-----------7---------7------7------------------------|
Ab|--5-----------5---------5------5------------------------|
Db|--0-----------0---------0------0------------------------|
==========================================================================

interlude 2

tunning: drop C#


tabbed my ryanosaurus (me)



|-------------------------------------------------------|
|--------------11-11-11-11---13-13-13-13----11-11-11-11-|
|--------------14-14-14-14---17-17-17-17----14-14-14-14-|
|-0-0-0-0---------------------------------5-------------|
|-0-0-0-0---------------------------------3-------------|
|-0-0-0-0-----------------------------------------------|




==========================================================================
10.	"Return to Energiser"

tabbed by skate_mike


intro (it has wierd timing)

d#|--------------------------------------------------------------||
A#|--------------------------------------------------------------||
F#|--7-------5---------7---------7-------7-----------7-----------||
C#|--7-5-0-0-5-5-0-0-0-7-5-0-0-0-7-5-0-0-7-5-0-0-0---7-0-0-0-----||
G#|--5-5-0-0-7-5-0-0-0-5-5-0-0-0-5-5-0-0-5-5-0-0-0---5-0-0-0-----||
C#|----5-0-0---5-0-0-0---5-0-0-0---5-0-0---5-0-0-0---5-0-0-0-----||
         . .     . . .     . . .     . .     . . .     . . .

Part 2 (i dunno whether to cal it a verse)

||----------------------------------------------------------------------|
||----------------------------------------------------------------------|
||-------7--7-------7--7--------5--5-------5--5-------10-10-------10-10-|
||--5-5--8--8--5-5--8--8---3-3--5--5--3-3--5--5--8-8--10-10--8-8--10-10-|
||--5-5--5--5--5-5--5--5---3-3--3--3--3-3--3--3--8-8--8--8---8-8--8--8--|
||--5-5--5--5--5-5--5--5---3-3--3--3--3-3--3--3--8-8--8--8---8-8--8--8--|

|-----------------------------------------|
|-----------------------------------------|
|-----------------------------------------|
|-1-1--1-1--1-1--1-1----------------------| Play part 2 twice
|-1-1--1-1--1-1--1-1----------------------|
|-1-1--1-1--1-1--1-1----------------------|

Part 3 (similar to part 2 but different timing and sequence)

|--------------------------------------------------------------|
|--------------------------------------------------------------|
|-------7-7-7-------7-7-7-------10-10-10------10-10-10---------|
|--5-5--8-8-8--5-5--8-8-8--7-7--10-10-10-7-7--10-10-10---------|
|--5-5--5-5-5--5-5--5-5-5--7-7--7--7--7--7-7--7--7--7----------|
|--5-5--5-5-5--5-5--5-5-5--7-7--7--7--7--7-7--7--7--7----------|

|----------------------------------------------------------------|
|-------------------------------"we still have.. the element etc"|
|------10-10-10------10-10-10------------------------------------|
|-8-8--10-10-10-8-8--10-10-10---1-1-1--1-1-1--1-1-1--1-1-1-------|
|-8-8--8--8--8--8-8--8--8--8----1-1-1--1-1-1--1-1-1--1-1-1-------|
|-8-8--8--8--8--8-8--8--8--8----1-1-1--1-1-1--1-1-1--1-1-1-------|
                                 . . .  . . .  . . .  . . .

Bridge (listen to the track for timing)

|---------------------------------------------------------------|
|---------------------------------------------------------------|
|--7-7-7--7-7-7--8--8-8-8--7-7-7--8-8-8--8--7-7-7--7-7-7--------|
|--7-7-7--7-7-7--7--7-7-7--7-7-7--7-7-7--7--7-7-7--7-7-7--------|
|--5-5-5--5-5-5--5--5-5-5--5-5-5--5-5-5--5--5-5-5--5-5-5--------|
|--0-0-0--0-0-0--0--0-0-0--0-0-0--0-0-0--0--0-0-0--0-0-0--------|

|---------------------------------------------------------------|
|---------------------------------------------------------------|
|--8--8-8-8--7-7-7--8-8-8-8-------------------------------------|
|--7--7-7-7--7-7-7--7-7-7-7-------------------------------------|
|--5--5-5-5--5-5-5--5-5-5-5-------------------------------------|
|--0--0-0-0--0-0-0--0-0-0-0-------------------------------------|

Chorus

|---------------------------------------------------------------|
|---------------------------------------------------------------|
|---------------------------------------------------------------|
|-1-1-1-1-1-1-3-3-3-3-3-3-5-5-5-5-5-5-8-8-8-8-8-8---------------| X 3
|-1-1-1-1-1-1-3-3-3-3-3-3-5-5-5-5-5-5-8-8-8-8-8-8---------------|
|-1-1-1-1-1-1-3-3-3-3-3-3-5-5-5-5-5-5-8-8-8-8-8-8---------------|

|---------------------------------------------------------------|
|---------------------------------------------------------------|
|---------------------------------------------------------------|
|-1-1-1-1-1-1-3-3-3-3-3-3-5~------------------------------------|
|-1-1-1-1-1-1-3-3-3-3-3-3-5~------------------------------------|
|-1-1-1-1-1-1-3-3-3-3-3-3-5~------------------------------------|

Synth Breakdown (only like 1% sure this is right)

|--3~----4~-----5~----1~-------------------------------------------|
|---3~----6~-----7~----1~------------------------------------------|
|---3~----6~-----7~----2~------------------------------------| X 2-|
|---5~----6~-----7~----3~------------------------------------------|
|------------------------------------------------------------------|
|------------------------------------------------------------------|

Bit after synth breakdown "thats not what you want"

||----------------------------------------------------------------|
||----------------------------------------------------------------|
||----------------------------------------------------------------|
||-5-5-5--5-5-5-5--5-5-5--5-5-5-5--0-0-0--0-0-0-0--0-0-0--0-0-0-0-|
||-5-5-5--5-5-5-5--5-5-5--5-5-5-5--0-0-0--0-0-0-0--0-0-0--0-0-0-0-|
||-5-5-5--5-5-5-5--5-5-5--5-5-5-5--0-0-0--0-0-0-0--0-0-0--0-0-0-0-|
   . . .  . . . .  . . .  . . . .  . . .  . . . .  . . .  . . . .

|----------------------------------------------------------------||
|----------------------------------------------------------------||
|----------------------------------------------------------------||
|-1-1-1--1-1-1-1--1-1-1--1-1-1-1--3-3-3--3-3-3-3--3-3-3--3-3-3-3-|| X2
|-1-1-1--1-1-1-1--1-1-1--1-1-1-1--3-3-3--3-3-3-3--3-3-3--3-3-3-3-||
|-1-1-1--1-1-1-1--1-1-1--1-1-1-1--3-3-3--3-3-3-3--3-3-3--3-3-3-3-||
   . . .  . . . .  . . .  . . . .  . . .  . . . .  . . .  . . . .

||----------------------------------------------------------------|
||----------------------------------------------------------------|
||----------------------------------------------------------------|
||-5-5-5--5-5-5-5--5-5-5--5-5-5-5--0-0-0--0-0-0-0--0-0-0--0-0-0-0-|
||-5-5-5--5-5-5-5--5-5-5--5-5-5-5--0-0-0--0-0-0-0--0-0-0--0-0-0-0-|
||-5-5-5--5-5-5-5--5-5-5--5-5-5-5--0-0-0--0-0-0-0--0-0-0--0-0-0-0-|

|---------------------------------------------------------------|
|---------------------------------------------------------------|
|--8-8-8----7-7-7-----------------------------------------------|
|--8-8-8----8-8-8-----------------------------------------------|
|--6-6-6----6-6-6-----------------------------------------------|
|---------------------------------------------------------------|

|---------------------------------------------------------------|
|--"we still have, the element etc"-----------------------------|
|---------------------------------------------------------------|
|--1-1-1--1-1-1--1-1-1--1-1-1-----------------------------------|
|--1-1-1--1-1-1--1-1-1--1-1-1-----------------------------------|
|--1-1-1--1-1-1--1-1-1--1-1-1-----------------------------------|
    . . .  . . .  . . .  . . .
Second bridge (again.. listen to track for timing)

|---------------------------------------------------------------|
|---------------------------------------------------------------|
|--7-7-7--7-7-7--8--8-8-8--7-7-7--8-8-8--8--7-7-7--7-7-7--------|
|--7-7-7--7-7-7--7--7-7-7--7-7-7--7-7-7--7--7-7-7--7-7-7--------|
|--5-5-5--5-5-5--5--5-5-5--5-5-5--5-5-5--5--5-5-5--5-5-5--------|
|--0-0-0--0-0-0--0--0-0-0--0-0-0--0-0-0--0--0-0-0--0-0-0--------|

|---------------------------------------------------------------|
|---------------------------------------------------------------|
|--8--8-8-8--7-7-7--8-8-8-8-------------------------------------|
|--7--7-7-7--7-7-7--7-7-7-7-------------------------------------|
|--5--5-5-5--5-5-5--5-5-5-5-------------------------------------|
|--0--0-0-0--0-0-0--0-0-0-0-------------------------------------|

Second Chorus

|---------------------------------------------------------------|
|---------------------------------------------------------------|
|---------------------------------------------------------------|
|-1-1-1-1-1-1-3-3-3-3-3-3-5-5-5-5-5-5-8-8-8-8-8-8---------------| X 3
|-1-1-1-1-1-1-3-3-3-3-3-3-5-5-5-5-5-5-8-8-8-8-8-8---------------|
|-1-1-1-1-1-1-3-3-3-3-3-3-5-5-5-5-5-5-8-8-8-8-8-8---------------|

|-------------------------------------------------------------|
|-------------------------------------------------------------|
|-------------------------------------------------------------|
|-1-1-1-1-1-1-3-3-3-3-3-3-------------------------------------|
|-1-1-1-1-1-1-3-3-3-3-3-3-------------------------------------|
|-1-1-1-1-1-1-3-3-3-3-3-3-------------------------------------|

End bit.. (i have no idea what it plays to be fair.. but what i usually do over it is..)

|------------------------------------------------------------------|
|------------------------------------------------------------------|
|-----8-----8------10------10-------12-------12-------15-17-15-----|
|---8-----8------10-----10-------12-------12-------15-----------15-|
|-6-----6------8------8-------10-------10-------13-----------------|
|------------------------------------------------------------------|

or something like that anyway
==========================================================================

12.	"Sorry, You're Not a Winner"

tabbed by ryanosaurus (me)

TUNING IS DROP C#

INTRO

d#|--------------------------------------------------------------|
A#|--------------------------------------------------------------|
F#|--------------------5-----------------------------------------|
C#|-----2-3--------2-3--------10---10---10--------10----10----10-|
G#|---------3-----------------12---12---12--------12----12----12-|
C#|-0-0--------0-0--------8-8----8----8-----10-10----10----10----|
    . .        . .        . .    .    .     .  .     .     .
|-----------------------------------------|
|-----------------------------------------|
|--------------------5*-------------------|
|-----2-3--------2-3--------10---10---10--|
|---------3-----------------12---12---12--|CLAP CLAP CLAP
|-0-0--------0-0--------8-8----8----8-----|
  . .        . .        . .    .    .
VERSE RIFF (SAME AS INTRO)

|--------------------------------------------------------------|
|--------------------------------------------------------------|
|--------------------5-----------------------------------------|
|-----2-3--------2-3--------10---10---10--------10----10----10-| X4
|---------3-----------------12---12---12--------12----12----12-|
|-0-0--------0-0--------8-8----8----8-----10-10----10----10----|
  . .        . .        . .    .    .     .   .    .      .

CHORUS

|--------------------------------------------------------|
|--------------------------------------------------------|
|-------5-------5-----5----------------------------------|
|-0-0-0-7-0-0-0-7-0-0-7--10-10-10-10--8--8--8--8---8--8--|
|-0-0-0---0-0-0---0-0----10-10-10-10--8--8--8--8---8--8--|
|-0-0-0---0-0-0---0-0----10-10-10-10--8--8--8--8---8--8--|
  . . .   . . .   . .

|----------------------------------------------------|
|----------------------------------------------------|
|----------------------------------------------------|
|-------7-------7-----7--5-5-5-5--8--8--8--8---8--8--| X2
|-3-3-3---3-3-3---3-3----5-5-5-5--8--8--8--8---8--8--|
|-3-3-3---3-3-3---3-3----5-5-5-5--8--8--8--8---8--8--|
  . . .   . . .   . .
VERSE RIFF (SAME AS INTRO)

|--------------------------------------------------------------|
|--------------------------------------------------------------|
|--------------------5-----------------------------------------|
|-----2-3--------2-3--------10---10---10--------10----10----10-| X4
|---------3-----------------12---12---12--------12----12----12-|
|-0-0--------0-0--------8-8----8----8-----10-10----10----10----|
  . .        . .        . .    .    .     .  .     .      .
CHORUS (SAME AS FIRST CHORUS)

|--------------------------------------------------------|
|--------------------------------------------------------|
|-------5-------5-----5----------------------------------|
|-0-0-0-7-0-0-0-7-0-0-7--10-10-10-10--8--8--8--8---8--8--|
|-0-0-0---0-0-0---0-0----10-10-10-10--8--8--8--8---8--8--|
|-0-0-0---0-0-0---0-0----10-10-10-10--8--8--8--8---8--8--|
  . . .   . . .   . .

|----------------------------------------------------|
|----------------------------------------------------|
|----------------------------------------------------|
|-------7-------7-----7--5-5-5-5--8--8--8--8---8--8--| X2
|-3-3-3---3-3-3---3-3----5-5-5-5--8--8--8--8---8--8--|
|-3-3-3---3-3-3---3-3----5-5-5-5--8--8--8--8---8--8--|

|--------------|
|--------------|
|--------------|
|-0-0-0-0-LET--|
|-0-0-0-0-RING-|
|-0-0-0-0------|
  . . .
CLEAN GUITAR BIT, SLIGHTLY PALM MUTED

|--------------------------|
|-10-------10------8-------|
|-10-(X16)-10-(X8)-10-(X8)-|
|-0--------8-------10------| X6
|--------------------------|
|--------------------------|

LAST CHORUS

|-------8--------8------8----------------------------------|
|-------8--------8------8----------------------------------|
|-------10-------10-----10-12-12-12-12--10-10-10-10--10-10-|
|-------10-------10-----10-10-10-10-10--10-10-10-10--10-10-|
|-0-0-0----0-0-0----0-0----12-12-12-12--8--8--8--8---8--8--|
|-0-0-0----0-0-0----0-0----10-10-10-10--8--8--8--8---8--8--|


|----------------------------------------------------|
|----------------------------------------------------|
|----------------------------------------------------|
|-------7-------7-----7--5-5-5-5--8--8--8--8---8--8--| X2
|-3-3-3---3-3-3---3-3----5-5-5-5--8--8--8--8---8--8--|
|-3-3-3---3-3-3---3-3----5-5-5-5--8--8--8--8---8--8--|

|-----------------|           |-----------------------|    |---------------|
|-----------------|           |-----------------------|    |---------------|
|-------5-------5-|           |-------5-------5-----5-|    |---------------|
|-------7-------7-|           |-------7-------7-----7-| X3 |-000000000-----|
|-0-0-0---0-0-0---|           |-0-0-0---0-0-0---0-0---|    |-000000000-----|
|-0-0-0---0-0-0---|           |-0-0-0---0-0-0---0-0---|    |-000000000-----|
  . . .   . . .                 . . .   . . .   . .          ........
WHAT? WHAT? WHAT!?

|-----------------------|
|-----------------------|
|-------5-------5-----5-|
|-------7-------7-----7-|
|-0-0-0---0-0-0---0-0---|
|-0-0-0---0-0-0---0-0---|
  . . .   . . .   . .
|----------------------|                 |-----------------|
|----------------------|                 |-----------------|
|----------------------|                 |-----------------|
|-000000000--0-0-0--00-|                 |-00-00-00-00-----|
|-000000000--0-0-0--00-|X3 and then play |-00-00-00-00-----|
|-000000000--0-0-0--00-|   this          |-00-00-00-00-----|
  .........  . . .  ..                     .. .. .. ..
|-------------------------------------|
|-------------------------------------|
|-------------------------------------|
|-00-00-00-00-11-11-11-11-33-33-33-33-|
|-00-00-00-00-11-11-11-11-33-33-33-33-|
|-00-00-00-00-11-11-11-11-33-33-33-33-| X4
  .. .. .. .. .. .. .. .. .. .. .. ..

===========================================================================

14."Jonny Sniper"

tabbed by dom-the-avitar

c# tuning

intro done on synth

then

 ----------------------------|
 ----------------------------|
 -5--5-5--7--7-7--9--9-9-10--|
 -x--x-x--x--x-x--x--x-x-x---|
 -3--3-3--5--5-5--7--7-7-8---|
 ----------------------------|

 -----------------------------------|
 -----------------------------------|
 -5-5-5-5-5--5-5--7--7-7--9--9-9-10-|
 -x-x-x-x-x--x-x--x--x-x--x--x-x-x--|
 -3-3-3-3-3--3-3--5--5-5--7--7-7-8--|
 -----------------------------------|

then the little interlude were just the keybord plays

  R  L L  R L  R L  L  R L  L  R  L R  L  L
 -------------------------------------------|
 ------17---15------15------15---13------13-|
 -5-------5----5-------5-------5----5-------|
 ---17-----------17------17-----------17----|
 -------------------------------------------|
 -------------------------------------------|

then the pre chorus
play twice
 ------------------------------------------------------|
 -------1-1-------0-0-----0-0-------1-1--------0-0---0-|
 -------0-0-------0-0-----0-0-------0-0--------0-0---0-|
 -3-3-3-----5-5-5-----5-5-----7-7-7------5-5-5-----5---|
 -3-3-3-----5-5-5-----5-5-----7-7-7------5-5-5-----5---|
 -3-3-3-----5-5-5-----5-5-----7-7-7------5-5-5-----5---|


 ----------------------------|
 ----------------------------|
 -5--5-5--7--7-7--9--9-9-10--|
 -x--x-x--x--x-x--x--x-x-x---|
 -3--3-3--5--5-5--7--7-7-8---|
 ----------------------------|

 -----------------------------------|
 -----------------------------------|
 -5-5-5-5-5--5-5--7--7-7--9--9-9-10-|
 -x-x-x-x-x--x-x--x--x-x--x--x-x-x--|
 -3-3-3-3-3--3-3--5--5-5--7--7-7-8--|
 -----------------------------------|
  R  L L  R L  R L  L  R L  L  R  L R  L  L
 -------------------------------------------|
 ------17---15------15------15---13------13-|
 -5-------5----5-------5-------5----5-------|
 ---17-----------17------17-----------17----|
 -------------------------------------------|
 -------------------------------------------|


play twice
 ------------------------------------------------------|
 -------1-1-------0-0-----0-0-------1-1--------0-0---0-|
 -------0-0-------0-0-----0-0-------0-0--------0-0---0-|
 -3-3-3-----5-5-5-----5-5-----7-7-7------5-5-5-----5---|
 -3-3-3-----5-5-5-----5-5-----7-7-7------5-5-5-----5---|
 -3-3-3-----5-5-5-----5-5-----7-7-7------5-5-5-----5---|


chorus
play twice

 ----------------------------|
 ----------------------------|
 -5--5-5--7--7-7--9--9-9-10--|
 -x--x-x--x--x-x--x--x-x-x---|
 -3--3-3--5--5-5--7--7-7-8---|
 ----------------------------|

 -----------------------------------|
 -----------------------------------|
 -5-5-5-5-5--5-5--7--7-7--9--9-9-10-|
 -x-x-x-x-x--x-x--x--x-x--x--x-x-x--|
 -3-3-3-3-3--3-3--5--5-5--7--7-7-8--|
 -----------------------------------|


pre chorus again
play 4 times through
 ----------------------------|
 ----------------------------|
 -5--5-5--7--7-7--9--9-9-10--|
 -x--x-x--x--x-x--x--x-x-x---|
 -3--3-3--5--5-5--7--7-7-8---|
 ----------------------------|

 -----------------------------------|
 -----------------------------------|
 -5-5-5-5-5--5-5--7--7-7--9--9-9-10-|
 -x-x-x-x-x--x-x--x--x-x--x--x-x-x--|
 -3-3-3-3-3--3-3--5--5-5--7--7-7-8--|
 -----------------------------------|

then the outro
play 6 times
 -------------------------------------------------|
 -------------------------------------------------|
 -------------------------------------------------|
 --10----10---10-10----7----7---7----3---3--------|
 --10----10---10-10----7----7---7----3---3--------|
 --10----10---10-10----7----7---7----3---3--------|

=========================================================================

15."Adieu"

tabbed by whitham_is

Tuning: Db Ab Db Gb Bb Eb

KEY:
| /  slide up
| \  slide down
| h  hammer-on
| x  Mute note

Intro: (two ways: recorded version or live version - see below)
|-------------------------------------------------------------------------|
|-------------------------------------------------------------------------|
|-7---7--7---7--7/9---9--9---9--9/11--11-11--11-11------------------------|
|-x---x--x---x--x-x---x--x---x--x-x---x--x---x--x-------------------------|
|-5---5--5---5--5/7---7--7---7--7/9---9--9---9--9-------------------------|
|-0---0--0---0--0-0---0--0---0--0-0---0--0---0--0---x2--------------------|
You don't have to play the top E string, I just think it sounds better.


|-5---5--5--5---5--5--5---5--5--5---5--5----------------------------------|
|-7---7--7--7---7--7--7---7--7--7---7--7----------------------------------|
|-7---7--7--7---7--7--7---7--7--7---7--7--7-------------------------------|
|-5---5--5--5---5--5--5---5--5--5---5--5--x-------------------------------|
|-5---5--5--5---5--5--5---5--5--5---5--5--5-(let ring)--------------------|
|-5---5--5--5---5--5--5---5--5--5---5--5--0-------------------------------|

OR; In the live version, sometimes Chris plays the first part of the intro
like this:
|-------------------------------------------------------------------------|
|-7---7--7---7--7/8---8--8---8--8/10--10-10--10-10------------------------|
|-7---7--7---7--7/9---9--9---9--9/11--11-11--11-11------------------------|
|-x---x--x---x--x-x---x--x---x--x-x---x--x---x--x-------------------------|
|-5---5--5---5--5/7---7--7---7--7/9---9--9---9--9-------------------------|
|-0---0--0---0--0-0---0--0---0--0-0---0--0---0--0---x2--------------------|
...which I think sounds way cooler.

Verse: (pretty much the same as the intro, but I've done it with the words
so you can see where everything fits)
|-------------------------------------------------------------------------|
|-------------------------------------------------------------------------|
|------7---7--7---7--7/9---9--9---9--9/11--11-11--11-11-------------------|
|------x---x--x---x--x-x---x--x---x--x-x---x--x---x--x--------------------|
|------5---5--5---5--5/7---7--7---7--7/9---9--9---9--9--------------------|
|------0---0--0---0--0-0---0--0---0--0-0---0--0---0--0--------------------|
 And I Lo-           ng    for you   to    appear, after

|-------------------------------------------------------------------------|
|-------------------------------------------------------------------------|
|-7---7--7---7--7/9---9--9---9--9/11--11-11--11-11------------------------|
|-x---x--x---x--x-x---x--x---x--x-x---x--x---x--x-------------------------|
|-5---5--5---5--5/7---7--7---7--7/9---9--9---9--9-------------------------|
|-0---0--0---0--0-0---0--0---0--0-0---0--0---0--0-------------------------|
  Lo-            sing    your   way   across star-riddled

|-5---5--5--5---5--5--5---5--5--5---5--5----------------------------------|
|-7---7--7--7---7--7--7---7--7--7---7--7----------------------------------|
|-7---7--7--7---7--7--7---7--7--7---7--7--7--7-7--7--7-7/9--9-9\7--7-7----|
|-5---5--5--5---5--5--5---5--5--5---5--5--x--x-x--x--x-x-x--x-x-x--x-x----|
|-5---5--5--5---5--5--5---5--5--5---5--5--5--5-5--5--5-5/7--7-7\5--5-5----|
|-5---5--5--5---5--5--5---5--5--5---5--5--0--0-0--0--0-0-0--0-0-0--0-0----|
  skies,                  To carry you ho-me

Repeat (in second round of verses, only play once)

THEN; there's TWO ways of playing this following part. The first one is
what Chris plays in the recorded version, the second is just good for
when you're playing the song by yourself and want some meaty chords. I use
the second way just 'cos it sounds a bit juicier.

|--------------------------------5---5--5---------------------------------|
|--------------------------------5---5--5---------------------------------|
|--11--11-11\9---9--9\7---7--7---7---7--7---------------------------------|
|--x---x--x--x---x--x-x---x--x---5---5--5---------------------------------|
|--9---9--9-\7---7--7\5---5--5---5---5--5---------------------------------|
|--0---0--0--0---0--0-0---0--0---5---5--5-------x3------------------------|
 I che-      rish     my          loss,
 A ge-       ntle     re-         minder,
   Li-   fe  is       un-         kind

|--5---5--5---5----5--5---------------------------------------------------|
|--5---5--5---5----5--5---------------------------------------------------|
|--6---6--6h7-7----6--6h7-------------------------------------------------|
|--5---5--5---5----5--5----------------(back to intro and verse)----------|
|--5---5--5---5----5--5---------------------------------------------------|
|--5---5--5---5----5--5---------------------------------------------------|
          ...at the best of times

Here's the second way of doing it with the juicy chords:

|--5---5--5--5---5--5---2---2--2---5---5--5-------------------------------|
|--7---7--7--5---5--5---3---3--3---5---5--5-------------------------------|
|--7---7--7--7---7--7---4---4--4---7---7--7-------------------------------|
|--7---7--7--7---7--7---4---4--4---5---5--5-------------------------------|
|--5---5--5--5---5--5---2---2--2---5---5--5-------x4----------------------|
|--0---0--0--0---0--0---2---2--2---5---5--5-------------------------------|


THEN; there's this part:
|-------------------------------------------------------------------------|
|-------------------------------------------------------------------------|
|-11--11-11/9---9--9---7\9--9\11--11\12/11--------------------------------|
|-x---x--x--x---x--x---x-x--x-x---x--x--x---------------------------------|
|-9---9--9-/7---7--7---5\7--7\9---9-\10/9---------------------------------|
|-0---0--0--0---0--0---0-0--0-0---0--0--0---------------------------------|
 Bra-ce your-self, 'cos I think I'm co-ming f-or you
 (Lo-ok up in-to the sk-y)

|-------------------------------------------------------------------------|
|-------------------------------------------------------------------------|
|-11--11-11/9---9--9---7\9--9\11--11\9/7----------------------------------|
|-x---x--x--x---x--x---x-x--x-x---x--x-x----------------------------------|
|-9---9--9-/7---7--7---5\7--7\9---9-\7/5----------------------------------|
|-0---0--0--0---0--0---0-0--0-0---0--0-0----------------------------------|

|-------------------------------------------------------------------------|
|-------------------------------------------------------------------------|
|-11--11-11/9---9--9---7\9--9\11--11\12/11--------------------------------|
|-x---x--x--x---x--x---x-x--x-x---x--x--x---------------------------------|
|-9---9--9-/7---7--7---5\7--7\9---9-\10/9---------------------------------|
|-0---0--0--0---0--0---0-0--0-0---0--0--0---------------------------------|

|-------------------------------------------------------------------------|
|-------------------------------------------------------------------------|
|-11--11-11/9---9--9---7\9--9\11--11\9/7----7\9--9\11--11\9/7-------------|
|-x---x--x--x---x--x---x-x--x-x---x--x-x----x-x--x-x---x--x-x-------------|
|-9---9--9-/7---7--7---5\7--7\9---9-\7/5----5\7--7\9---9-\7/5-------------|
|-0---0--0--0---0--0---0-0--0-0---0--0-0----0-0--0-0---0--0-0-------------|

Basically, that's a whole lot of sliding up and down on the fret board :)

FINALLY; the real pretty-sounding part:

I found this way of playing it by watching a recording from a concert.
If this is too difficult, other tabs have a different method.
|-------------------------------------------------------------------------|
|-------7---------7----5-----5------8\7--5--------------------------------|
|-------7-----------7-----7-----7-----------7-----------------------------|
|-------0-----------------------------------------------------------------|
|-------------------------------------------------------------------------|
|--0----------0-----------------------------------------------------------|

|----------------------------------7--5-----------------------------------|
|-------7---------7----5-----5-----------7--------------------------------|
|-------7-----------7-----7-----7-----------7-----------------------------|
|-------0-----------------------------------------------------------------|
|-------------------------------------------------------------------------|
|--0----------0-----------------------------------------------------------|

|-------------------------------------------------------------------------|
|-------7---------7----5-----5-----8\7--5-------------easiest way to do---|
|-------7-----------7-----7-----7----------7----------this is to play-----|
|-------5---------------------------------------------it like a bar chord-|
|-------------------------------------------------------------------------|
|--5----------5-----------------------------------------------------------|

|----------------------------------7--5-----------------------------------|
|-------7---------7----5-----5-----------7--------------------------------|
|-------7-----------7-----7-----7-----------7-----------------------------|
|-------5-----------------------------------------------------------------|
|---------------------------------------------------repeat whole riff x2--|
|--5----------5-----------------------------------------------------------|

|-0-0-0-0-0-0-0-0-7-7-7-7-7-7-7-7-9--9--9--9--9--9--9--9--5-5-5-5-5-5-5-5-|
|-0-0-0-0-0-0-0-0-7-7-7-7-7-7-7-7-9--9--9--9--9--9--9--9--8-8-8-8-8-8-8-7-|
|-7-7-7-7-7-7-7-7-9-9-9-9-9-9-9-9-11-11-11-11-11-11-11-11-7-7-7-7-7-7-7-7-|
|-0-0-0-0-0-0-0-0-7-7-7-7-7-7-7-7-9--9--9--9--9--9--9--9--5-5-5-5-5-5-5-5-|
|-0-0-0-0-0-0-0-0-7-7-7-7-7-7-7-7-9--9--9--9--9--9--9--9--5-5-5-5-5-5-5-5-|
|-0-0-0-0-0-0-0-0-7-7-7-7-7-7-7-7-9--9--9--9--9--9--9--9--5-5-5-5-5-5-5-5-|
 Ho-me could be   any-where when  I am ho-    lding       y-     ou

Repeat a million times.

END

============================================================================

16."OK Time for Plan B"


THIS IS TABED BY ENTER SHIKARI SO IT WILL BE RIGHT. ENJOY IT!1

IT'S PLAYED IN DROP C#, SO BASICALLY DROP D, THEN EVERY STRING TUNED DOWN HALF A STEP

INTRO

d#|-0-----------0-0-|
A#|-0-----------0-0-|
F#|-0-----------0-0-|
C#|-0-LET RING--0-0-| X 4
G#|-0-----------0-0-|
C#|-0-----------0-0-|

FIRST VERSE - LET THIS BATTLE COMMENCE, ONE LAST TIME

|--------------------------------------------|
|--------------------------------------------|
|--------------------------------------------|
|-2-2-2-2-2--2-2-2-2-2--0-0-0-0-0--0-0-0-0-0-|
|-2-2-2-2-2--2-2-2-2-2--0-0-0-0-0--0-0-0-0-0-|
|-2-2-2-2-2--2-2-2-2-2--0-0-0-0-0--0-0-0-0-0-|

|--------------------------------------------0-----0------0-----|
|--------------------------------------------10P-0-7>8P-0-5>7<3-|
|---------------------------------------------------------------|
|-2-2-2-2-2--2-2-2-2-2--0-0-0-0-0--0-0-0-0-0--------------------|
|-2-2-2-2-2--2-2-2-2-2--0-0-0-0-0--0-0-0-0-0--------------------|
|-2-2-2-2-2--2-2-2-2-2--0-0-0-0-0--0-0-0-0-0--------------------|

2ND HALF

|-----------0---0-0---0-0-0-0----0-|
|-----------5>7-7-7>8-8-8-8-8>10-7-|
|----------------------------------|
|-2-2-2-2-2------------------------| X2
|-2-2-2-2-2------------------------|
|-2-2-2-2-2------------------------|

|-----------0---0-0-0-0-0-0---0-----------0---0-0-0-0-0-0----0-|
|-----------7>8-8-8-8-8-8-8<7-7-----------7>8-8-8-8-8-8-8>10<7-|
|--------------------------------------------------------------|
|-0-0-0-0-0---------------------0-0-0-0-0-LET RING-------------| (X2 2ND HALF)
|-0-0-0-0-0---------------------0-0-0-0-0----------------------|
|-0-0-0-0-0---------------------0-0-0-0-0----------------------|

CHORUS - CLEAN GUITAR

|----3---3---3---------10----10----10-----------15-----15-----15------|
|--1---1---1---1----8-----8-----8-----8-----13-----13-----13-----13---|
|-4-4---4---4---4-11-11----11----11----11-16--16-----16-----16-----16-|
|-X---------------0-----------------------X---------------------------| X3
|-3---------------------------------------0---------------------------|
|---------------------------------------------------------------------|

|----3---3---3---------10----10----10-----|
|--1---1---1---1----8-----8-----8-----8---|
|-4-4---4---4---4-11-11----11----11----11-|
|-X---------------0-----------------------|
|-3---------------------------------------|
|-----------------------------------------|


|-----------------------------------------------------------------|
|-13-13--13--13--13--13--13--13--13-13-13--13--13--13--13--13--13-|
|-16-16--16--16--16--16--16--16--16-16-16--16--16--16--16--16--16-|
|-----------------------------------------------------------------|
|-----------------------------------------------------------------|
|-----------------------------------------------------------------|

|-------------------------------------------------------|
|-------------------------------------------------------| (LISTEN TO THE RECORD
|-------------------------------------------------------| FOR HOW THIS BIT
|-2-2-2-2-2---------------------------------------------| GOES, ITS EASIER)
|-2-2-2-2-2-X4,THEN-10-10-10-10-7-7-7-7-9-9-9-9-5-5-5-5-|
|-2-2-2-2-2---------------------------------------------|

THE STRAIGHT INTO TO THE SECOND HALF OF THE VERSE

|-----------0---0-0---0-0-0-0----0-|
|-----------5>7-7-7>8-8-8-8-8>10-7-|
|----------------------------------|
|-2-2-2-2-2------------------------| X2
|-2-2-2-2-2------------------------|
|-2-2-2-2-2------------------------|

|-----------0---0-0-0-0-0-0---0-----------0---0-0-0-0-0-0----0-|
|-----------7>8-8-8-8-8-8-8<7-7-----------7>8-8-8-8-8-8-8>10<7-|
|--------------------------------------------------------------|
|-0-0-0-0-0---------------------0-0-0-0-0-LET RING-------------| (X2 THIS WHOLE
|-0-0-0-0-0---------------------0-0-0-0-0----------------------| PART)
|-0-0-0-0-0---------------------0-0-0-0-0----------------------|

|-3--3-3--3-3>--10--10-10--10-10-|
|-1--1-1--1-1>--8---8--8---8--8--|
|-4--4-4--4-4>--1---1--1---1--1--|
|-X--X-X--X-X--0---0--0---0--0---| STRUM IT LIGHTLY
|-3--3-3--3-3--------------------|
|--------------------------------|

MAIN BUILD UP RIFF

|--0-0-0-0---0-0---0-0-0-0----0----0-0-0-0-0-0-0-0-0-0-0-|
|--5-5-5-5>7-7-7>8-8-8-8-8>10-10<7-7-7-7-7-7-7-7-7-7-7-7-|
|----------------------------------0-------0-------------|
|--------------------------------------------------------| REPEAT THROUGH BUILD UP
|--------------------------------------------------------|
|--------------------------------------------------------|

|------------------------------|
|-----------1------------------|
|-----------4-LET RING---------|
|-2-2-2-2-2--------------------|
|-2-2-2-2-2--------------------|
|-2-2-2-2-2--------------------|

	    OK, TIME FOR PLAN B

|-------------------------------------------------------------------------|
|-CLOSED CHUGS---------------------------OPEN CHUGS-----------------------|
|-------------------------------------------------------------------------|
|-2-2-2-2-2----14-14<--------0--------->-0-0------------------------------|
|-2-2-2-2-2-X4-14-14<-SSLLLII0IDDEEEEE->-0-0-ETC, ITS EASIER TO LISTEN TO-|
|-2-2-2-2-2----14-14<--------0--------->-0-0-THE RECORD FOR THIS BIT------|

THE RANDOM FILL IN THE MIDDLE

|-----------------------------|
|-----------------------------|
|-----------------------------|
|-00-0-0-6<3>5<2---------0-0--|
|-00-0-0-X-------0H3H5H6-0-0--|
|-00-0-0-6<3>5<2---------0-0--|

AND THE OPEN “STABBY” CHORD AT THE END

|-----|
|--12-|
|--14-|
|--0--|
|--0--|
|--0--|


| > slide up
| < slide down
| h  hammer-on
| p  pull-off
| x  Mute note
============================================================================

17."Closing"

tabbed my ryanosaurus (me)



|--------------------------|                       |---------|
|--------------11-11-11-11-|                       |---------|
|--------------14-14-14-14-|                       |---------|
|-0-3-2-0------------------|                       |-0-3-2-0-|
|-0-3-2-0------------------|  x8 then play this    |-0-3-2-0-|
|-0-3-2-0------------------|                       |-0-3-2-0-|


|--------------------------|
|--------------11-11-11-11-|
|--------------14-14-14-14-|
|-0-3-2-0------------------|
|-0-3-2-0------------------|
|-0-3-2-0------------------|

the guitar part fades out eventually so just keep on playing it
===========================================================================

its a great album by a great band
thank you too all the people who tabbed out most of the songs
i just thought i would do the album tab because no body has done it so i
though why not but please enjoy
comments
We did not receive enough feedback on this tab! Please rate:
print report bad tab
1 2 3 4 5
I want to post or [tab]
guest
You may want to rate the tab now too:
select rating
Please do not post tabs as comments. Select "correction" instead!