Oops, an error
Loading. Please wait.

Burzukh Tab

109 views 1 this week
no commentswrite comment
1 2 3 4 5
worth learning
x 1
Autoscroll
+/-
esc
set tempo
stop
Difficulty
Tuning
intermediate
D A D G B E
Hey! There's an official Ultimate Guitar app which is ideal
for learning songs when you're away from computer. Get the app
WARNING: You are trying to view
                                    content from Ultimate-Guitar.com
                                    in an unauthorized application,
                                    which is prohibited.

                                    Please use an official Ultimate
                                    Guitar Tabs application for iPhone,
                                    iPad or Android to access legitimate
                                    chords, guitar, bass, and drum tabs
                                    from Ultimate-Guitar.com database.

                                    Type "ultimate guitar tabs" in Apple
                                    App Store's or Android Market's
                                    search to find the application.
Man this song is the most complicated song that i have tabbed out...So many chords that 
the same!! But a very nice

song at that...I tried to make this tab as clear as i could possibly make it..It took me 1 whole day!!!
------------------------------------------------------------------------------------------------------
Dm2: 00023x Bb: 003331 E: 133211 Gmaj:3200xx
Dm1: 000230 Bb2: 00333x F:557765 F#:577655
Dm: 000231 D: 000232 G:000233 A:002200
G5:688xxx A5:577xx G5:355xx F5:244xxx
E5:0220xx

Intro:

Dm2 E Bb

--1-------------|
3---------------|
------3---------|
----3-----------|
----------------|
----------------|

Bb2 Dm2 E Bb Dm1
------------------------------------------------------------
Distortion

Dm2 X8 E X8 Bb2 X8 Dm1 X8
-------------------------------------------------------------|
Dm-----------------------------------------------------------|E
Jala do aaa meri umeedon ko
--Bb-----------Dm1
Jalao kay hoor bhi ruk jaaye
---Dm-----------E
Mi-Mita do aaa meri khwahishon ko
----Bb-------------Dm1
Ki-kisay main-haai kuch bhi reh na jaaye

----------------------------------------|
----------------------------------------|
------------------0---------------------|
--0--3--0------0---0------0--5-0--------|
-3-3-----3----3-3---3---3--3----3-------|
----------------------------------------|
Dm1-------------------------------------|Dm
Khwaab ya haqiiqat
------E----------------Bb
Humm kaun hoon main is baar
--Dm1----------------------Dm
Kuch bhi nahin meray haath main
E------------------Bb--Dm1--D
Kaun hoon main laachaaaaaar
------------------------------------------------------------------------
electric guitar slides w/ distortion

Dm1----------------Dm-----Dm1
Khwab haqiqat tera wajooooood
Dm1-------------------------------G
Humm aur ek tha sath tha sath ka vaasta
Dm1---------------------Dm--------Dm1
Ab bhi teray haath main kuch nahin
Dm1---------------------Dm---------Dm1
Tab bhi teray haath main kuch na tha
--------------------------------------------------------------------------|
Dm------------------------------------------------------------------------|E
Saza do aaa mar dalo mujko
---Bb----------Dm1
Ke ab mujhe khwab bhi na aaye
---Dm-----------E
laylo aaa mujh khwaab meray
----Bb-------------Dm1-----------------D
Ke dil mai say umeed bhi mar jaayyyyeeee
--------------------------------------------------------------------------

0--0-------------------------------------|
0----0-0-------0--0-0-0--0---------------|
2------2---------2--------2--------------|
2------2-----0---------------------------|(Play for next verse or the chords)
0------0---0-----------------------------|
---------0-------------------------------|
A----------------------------------------|E5
Aaaaaaaaaaaaaaaaaaaaaaaaaaaaaaa (Next slide with base) (3:46)
Dm2----------------------E5
AAAAAAAAAAAAAAAAAAAAAAAAAAAAAA
Dm------------------------Bb2
Aaaaaaa main kahoon ab to kya
Dm-------------------Bb2
Aaaaaaa keh ab bacha hi nahi kuch bacha hi nahi
Dm----G-----------Bb2
Haaaaaa yeh soch hi reh gayi
----Dm------------G---------Bb
Keh main ab main hoon ke nahi

5-5--------------5-6-5----------8-5-8-7h8h7-5-7--8-10--10h11h10-8--10h11h10-8---------|
---8-6-5--8-6-5-5------6-5--6-5-------------------------------------------------------|
--------------------------------------------------------------------------------------|
--------------------------------------------------------------------------------------|
--------------------------------------------------------------------------------------|
--------------------------------------------------------------------------------------|

8h10--8s5--7h8h7-5s3---5--4h5h4-1-0--5-6-9-6h9---------4-5----------------------------|
----------------------6-------------------------6--5-6--------------------------------|
--------------------------------------------------------------------------------------|
--------------------------------------------------------------------------------------|
--------------------------------------------------------------------------------------|
--------------------------------------------------------------------------------------|

Dm----------E
Jala do aaa meri umeedon ko
---Bb-----------Dm1
Ke hoor bhi zindagi na chaahay
---Dm---------E
Sazaa do aaa maar daalo mujko
----Bb--------Dm1
ke ab mujhe khwab bhi na aaye
-------------------------------------------------------------------------------
Dm
Bhula do aa
E
saza do aa
Bb
jala do aa
Dm1
dua dua
F--------F#------F-------F#----F
Dua dua dua dua dua dua dua dua
Dm
Dua dua
Bb
Dua dua
Gmaj
Dua dua
Dm2
Dua dua
Dm
Dua dua
Bb
Dua dua
Gmaj
Dua dua
Dm
Dua dua

-----------------------------------------------------------------------------|
-----------------------------------------------------------------------------|
-----------------------------------------------------------------------------|
-12-12---12---12-12-12---12---12-12---12-12----------------------------------|
-12-12---12---12-12-12---12---12-12---12-12----------------------------------|
-10-10---10---10-10-10---10---10-10---10-10----------------------------------|

-----------------------------------------------------------------------------|
-----------------------------------------------------------------------------|
-----------------------------------------------------------------------------|
-12-12---12---12-12-12---12---12-12---12-12----------------------------------|
-12-12---12---12-12-12---12---12-12---12-12----------------------------------|
-10-10---10---10-10-10---10---10-10---10-10----------------------------------|

[DRUM ROLLS]
comments
We did not receive enough feedback on this tab! Please rate:
print report bad tab
1 2 3 4 5
I want to post or [tab]
guest
You may want to rate the tab now too:
select rating
Please do not post tabs as comments. Select "correction" instead!