Oops, an error
Loading. Please wait.

Irtiqa Tab

124 views 3 this week
no commentswrite comment
1 2 3 4 5
worth learning
x 1
Autoscroll
+/-
esc
set tempo
stop
Difficulty
Tuning
intermediate
D A D G B E
Hey! There's an official Ultimate Guitar app which is ideal
for learning songs when you're away from computer. Get the app
WARNING: You are trying to view
                                    content from Ultimate-Guitar.com
                                    in an unauthorized application,
                                    which is prohibited.

                                    Please use an official Ultimate
                                    Guitar Tabs application for iPhone,
                                    iPad or Android to access legitimate
                                    chords, guitar, bass, and drum tabs
                                    from Ultimate-Guitar.com database.

                                    Type "ultimate guitar tabs" in Apple
                                    App Store's or Android Market's
                                    search to find the application.
THIS IS NOT MY WORK. THIS IS A COLLECTION OF WORKS BY MANY PEOPLE! HERE YA GO:


02 - HUMAIN AAZMAN
	    E		        D
Mujh ko day woh jo tu na day saka
	C
Meree rooh ko na yoon sata
	E	  D
meree himat ko tu barhaa
	C
mayray khoon may who rang day
    C
jo rang tu na dau saka

guitar part: G D C C, G D A G

E		        D
meree ankhon may dekh zara
	C
aur phir mujhay tu yeh bata
         E		        D
hum dono may hai who kia
	C
na juhk sakay na ruk sakay
	C
aisaa who dum tunay diya

CHORUS
G      D
aaaa aaaa
C	  D
humain azmaa
G      D
aaaa aaaa
C	    D
choo kay dikhaa

G      D
aaaa aaaa
C	  D
humain azmaa
G      D
aaaa aaaa
C	    D
choo kay dikhaa

RAP
E D E D ...

REPEAT CHORUS


03 - KAHAN HAI TU

Intro :

(distorted and muted)
D---------------------------------------------------|
A---------------------------------------------------|
F---------------------------------------------------|
C--2--2-2--2-2--2-2--2------------------------------|
G--2--2-2--2-2--2-2--2------------------------------|
C--2--2-2--2-2--2-2--2------------------------------| repeat a bunch of times

then the main riff goes like

D---------------------------------------------------|
A---------------------------------------------------|
F---------------------------------------------------|
C-0--2--2--2--0--2--2--5------0--2--2--0--2--2--2---|
G-0--2--2--2--0--2--2--5------0--2--2--0--2--2--2---|
C-0--2--2--2--0--2--2--5------0--2--2--0--2--2--2---|


D---------------------------------------------------|
A---------------------------------------------------|
F---------------------------------------------------|
C-0--2--2--2--0--2--2--5------0--2--2--0--5--0--5---|
G-0--2--2--2--0--2--2--5------0--2--2--0--5--0--5---|
C-0--2--2--2--0--2--2--5------0--2--2--0--5--0--5---|

Verse:

(clean)
D---------------------------------------------------|
A---------------------------------------------------|
F---------------------------------------------------|
C--2-----5-----0---------0--------------------------|
G--2-----5-----0-------0---0------------------------|
C--2-----5-----0-----0------------------------------| x3

(distorted with palm muting)
D--------------------------------------------------------------|
A--------------------------------------------------------------|
F--------------------------------------------------------------|
C--2-2-2-2-2-2-2-2--10-10-10-10-10-10-10-10--5-5-5-5-5-5-5-5---|
G--2-2-2-2-2-2-2-2--10-10-10-10-10-10-10-10--5-5-5-5-5-5-5-5---|
C--2-2-2-2-2-2-2-2--10-10-10-10-10-10-10-10--5-5-5-5-5-5-5-5---|

Prechorus

D-----------------------------------------------------------------------------|
A-----------------------------------------------------------------------------|
F-----------------------------------------------------------------------------|
C-7-7-7-7-7-7-7-7--9-9-9-9-9-9-9-9--10-10-10-10-10-10-10-10--9-9-9-9-9-9-9-9--|
G-7-7-7-7-7-7-7-7--9-9-9-9-9-9-9-9--10-10-10-10-10-10-10-10--9-9-9-9-9-9-9-9--|
C-7-7-7-7-7-7-7-7--9-9-9-9-9-9-9-9--10-10-10-10-10-10-10-10--9-9-9-9-9-9-9-9--|
repeat twice then go back to

Main riff
Verse
Prechorus

Chorus

(distorted)
D---------------------------------------------------|
A---------------------------------------------------|
F---------------------------------------------------|
C--2----5-----0-----5--4-5-4-5-4-5-4-0--------------|
G--2----5-----0-----5--4-5-4-5-4-5-4-0--------------|
C--2----5-----0-----5--4-5-4-5-4-5-4-0--------------|

Bridge

(clean)
D--------------------------------------------------|
A--------------------------------------------------|
F--------------------------------------------------|
C--------------------------------------------------|
G------------0-------------0-----------------------|
C---2---5---------2----5---------------------------| repeat a bunch of times

then
(distored)
D--------------------------------------------------|
A--------------------------------------------------|
F--------------------------------------------------|
C--2--5--7----2--5--7------------------------------|
G--2--5--7----2--5--7------------------------------|
C--2--5--7----2--5--7------------------------------|


then go back to chorus


In some parts of the song u can hear a guitar playing this in the background

(distorted)
D-7----7----7----7----7----7----7----7----7---------|
A---10---10---10---10---10---10---10---10---10------|

i dont play it myself since i dont feel a great need for it but it's just
something u might be interested in adding


04 - HAMESHA

intro:

   |-X-X-----X-X-----X-X-----X-X-X-X-----X-X-----------------|
   |-X-X-----X-X-----X-X-----X-X-X-X-----X-X-----------------|
   |-X-X-----X-X-----7-7-----5-5-5-5-----7-7-----------------|
   |-2-2-----5-5-----7-7-----5-5-5-5-----7-7-----------------|
   |-2-2-----5-5-----5-5-----3-3-3-3-----5-5-----------------|
   |-0-0-----3-3-----X-X-----X-X-X-X-----X-X-----------------|  x4

4th time u end it in :

   |-X-X-X-X-----X-X-X-X---------------|
   |-X-X-X-X-----X-X-X-X---------------|
   |-5-5-5-5-----7-7-7-7---------------|
   |-5-5-5-5-----7-7-7-7---------------|
   |-3-3-3-3-----5-5-5-5---------------|
   |-X-X-X-X-----X-X-X-X---------------|

(verse)

chorus:

|-X-X-X----X-X-X----X-X-X----X-X----X-X-----------------|
|-X-X-X----X-X-X----X-X-X----X-X----X-X-----------------|
|-X-X-X----X-X-X----7-7-7----5-5----7-7-----------------|
|-2-2-2----5-5-5----7-7-7----5-5----7-7-----------------|
|-2-2-2----5-5-5----5-5-5----3-3----5-5-----------------|
|-0-0-0----3-3-3----X-X-X----X-X----X-X-----------------|

chahe kuch bhi ho jaye main rahoon ga

chahe waqt tham jaye main rahoon ga

main rahoon ga hamesha main rahoon ga

maut aye tau aye main rahoon ga-----> end with (strum upwards) 022XXX wen he says 'gaa' 
a long pause

solo (perfect):

e|------------------------------------------------------------|
B|------------------------------------------------------------|
G|------------------------------------------------------------|
D|---5-5-5/7-7-9-7-5/7-9-7-5-4-5-5-5-7-5-4-5-4-2-4-5-4--------|
A|------------------------------------------------------------|
E|------------------------------------------------------------|


e|-12-12-12-12-14-14-14-14-12-12-12-12-14-14-14-14-12-12-12-12|
B|------------------------------------------------------------|
G|------------------------------------------------------------|
D|------------------------------------------------------------|
A|------------------------------------------------------------|
E|------------------------------------------------------------|

e|-14-14-14-14-15-15-15-15-14-14-14-14-14-12------------------|
B|------------------------------------------------------------|
G|------------------------------------------------------------|
D|------------------------------------------------------------|
A|------------------------------------------------------------|
E|------------------------------------------------------------|


05 - WAQT

The Chords are
      c5     G#5    D#5    A#5  a#5   F5       C5
1---------------------------------------------------------|
2---------------------------------------------------------|
3------5-------------8-----------1-----10-----------------|
4------5------6------8------8----3-----10------10---------|
5------3------6------6------8----3-----8-------10---------|
6-------------4-------------6------------------8----------|

confusion? well there is no difference between c5 and C5 or A#5 and a#5 as far as the
and pitch go, its just that when u play them the way i have indicated its easier and more
e.g. during the verse u hear a distinct sound of fingers being dragged on the strings..
well u'll get that here..

Lead :
1-------------------------------|---------------------------------------|
2-------------------------------|---------------------------------------|
3--7/8-7-5-3/5-3---3-3-3--5-5/7-|-8-7-5-3/5-7-3---3-3--3-10/12-10h12p10-|
4----------------5--------------|---------------5-----------------------|
5-------------------------------|---------------------------------------|
6-------------------------------|---------------------------------------|

Rap:
This is how the story ...
1-------------------------|--------------------------|
2-------------------------|-----------6--------------|
3-------------------------|---8---7-------8---8------|
4----5---3---3h5---5---5--|-6---6---6---6---6--------|
5--3---3---3-----3---3----|--------------------------|
6-------------------------|--------------------------|
its a figure of...
1-------------------------|--------------------------|
2-------------------------|--------------------------|
3----5---7---5---5---5----|---3----------------------|
4--3---3---3---3---3------|-1---1--0-----0-1-01-0----|
5-------------------------|--------------------------|
6-------------------------|--------------------------|    2x

verse 1:
   C5            G#5
ek ehsas hai keh socha na tha
   D#5              a#5
waqt dhalta raha mein chalta raha
    C5           G#5
andheron mein bhi ik roshni thi
    D#5             a#5
oos roshni mein ghar jalta raha

Chorus:
   c5  D#5  a#5  a#5
to dil mera roye to kya
c5   G#5      D#5     A#5
waqt irado do toray to kya
c5        D#5  a#5  a#5
manzil to apni paye gay hum
c5     G#5    D#5        A#5
waqt ko apna banayein gay hum

post chorus:
c5        G#5
ho        ho
D#5       A#5
ho        ho....jo chahon wo ho

Verse 2
prechorus
chorus

Bridge:
c5           G#5
is dhool kay khumar say
 D#5        A#5
nashay mein rahein
c5            G#5
giray jin dyon pe parday
D#5      A#5
jalay na bhujay

OUTRO

e---------------------------------------------------------------------------------|
B-3/10-11-------------------------------------------------------------------------|
G---------10~-12-12/14-10-9-10-9-5~~~~/14-12h14-12~~------------------------------|
D---------------------------------------------------------------------------------|
A---------------------------------------------------------------------------------|
D---------------------------------------------------------------------------------|

e---------------------------------------------------------------------------------|
B-3/10-11-----------11/13---------------------------------------------------------|
G---------10~-10-12-------10-9-10-9-5~~~~/14-12h14-12~~~~-12/14~~~~~~~~-----------|
D---------------------------------------------------------------------------------|
A---------------------------------------------------------------------------------|
D---------------------------------------------------------------------------------|

D5        A#5
ho        ho
F5        C5
ho        ho mein chahoon woh ho


06 - AGHOSH

e -------------0---------------------------3-------------|
b -------0-------0----------------1----------1-----------|
g ---------2-------0-----------0------0---------0--------|
d ----2------2--------------2-----------2----------------|
a --0--------------------3-------------------------------|
E -------------------------------------------------------|

e --------------0----------------------0----------------------|
b -------1--------1----------------------1--------------------|
g -----2---2--------0------------0---------0------------------|
d ---3-------3----------------2-------------------------------|
a --------------------------3-------------------------2--0----|
E ----------------------------------------------0--3----------|

that was the starting .....n now the solo behind the verse and b4 the accoustic part 
in de end... it goes like

this.....

e ------------------------------------------------------------------|
b -----8------------------------8-------------8----------8----------|
g ---9---9-7-9-7-9-7------------------------------------------------|
d --------------------10-9-10-----10-9-10-9-----10-9-10---7-5-7-----|
a ------------------------------------------------------------------|
E ------------------------------------------------------------------|

-------------8--------------------------12---12-----12----12---------|
---10-8-10---10-8-10-8--------8----------12----12----12----12--------|
-----------------------9-7-9-----------------------------------\13~~-|
---------------------------------------------------------------------|
---------------------------------------------------------------------|
---------------------------------------------------------------------|

Main Solo, Played in different parts. Watch ur fingers!!!

e -----------------------------------------------------------------------|
b -----------------------------------------------------------------------|
g ---------------------------------------7-9----10-9-----------7---------|
d --7-10-7-10-7-10-9------7-9-10-9-10---------------10-9-10----7~~-------|
a -----------------------------------------------------------------------|
E -----------------------------------------------------------------------|

e --------------------------------------------------------------|
b --------------------------------------------------------------|
g --\9~--\7~--------------------------------------7-9-----------|
d ------------7-10-7-10-7-10-9------7-9-10-9-10-----------------|
a --------------------------------------------------------------|
E --------------------------------------------------------------|

e -----------------------------------------------------------------|
b --10-8--------5--------------------------------------------------|
g --------9-5-7---8---\9~--\7~-\6~--6--7-9-9-7-5-9-7-5-\9-7~-------|
d -----------------------------------------------------------------|
a -----------------------------------------------------------------|
E -----------------------------------------------------------------|

e -----------------------------------------------------------------|
b -----------------------------------5-5------8-----5---5----------|
g --5-7-5-4--------4-5-4----6--6-7------7-5-----7----7---7--5------|
d -----------7-5-7--------5----------------------------------------|
a -----------------------------------------------------------------|
E -----------------------------------------------------------------|

e ------------------------------------------------|
b ------5----6-5--5---5---------------------------|
g --7-5--7-5----7---7---7--5-7--\5~~~-------------|
d ------------------------------------------------|
a ------------------------------------------------|
E ------------------------------------------------|

Done with the solos guyzz choros cords r Am, G, F(003210), G.
And the distortion part i mean the rock part of the song is A5, C5, G5, F5, G5
and again starts wid A5.


08 - RAHGUZAR

Tuning: Drop D

PM - palm mute
h - hammer on
p - pull off
/ - slide

Remember to tune your low E string down to D (two frets down).

INTRO x2
e-|------------------------------------------|
B-|------------------------------------------|
G-|------------------------------------------|
D-|-----------12-9------------7-----7-----9--|
A-|----9-12-9-------------5-----5-----5------|
D-|--9-----------------5----5-----5-----5----|

e-|------------------------------------------|
B-|----------------------------------0-0-0---|
G-|----------------------------------0-0-0---|
D-|---------7/5---5/4---4/2---2h4\5--5-5-4---|
A-|-----5------------------------------------|
D-|--0----0-----0-----0-----0----------------|


0:27
These are the chords used in the verse. You can figure out
when to arpeggiate and when to strum them.
e-|--0---0------0----0--|
B-|--0---0------0----0--|
G-|--4---2------1----2--|
D-|--4---2------1----2--|
A-|--2---0------0----0--|
D-|--x---x------x----x--|
     B   Asus2  ??   Asus2
                ^^-I'm not too sure about this one. Let me know if you
                   find the right chord.


Solo 1 - 1:34
e-|----------------------12-11/7---------------------10-----|
B-|--7\10-7-10-10\12-------------12-10-12------10/12----12--|
G-|---------------------------------------------------------|
D-|---------------------------------------------------------|
A-|---------------------------------------------------------|
D-|---------------------------------------------------------|


GUITAR 1
2:13 - play these with distortion
e-|-----------------|
B-|-----------------|
G-|-----------------|
D-|--9---5---2---7--|
A-|--9---5---2---7--|
D-|--9---5---2---7--|
     B5  G5  E5  A5

B5                  G5
Arsh ko choomtey ho aaj
               E5
Bhool gaye woh raaz
       G5         A5
Maut talak hein dafan
B5               G5
Rah badal kay jo chaley
              E5
Ab ruk na pao gai
          G5  A5
Manzil to hai adum

E5         G5    A5
Toro in dar-o-deewar kai is saher ko

E5          A5     B5
Chalo soow-e-rahguzar


INTRO x2


3:58 - with distortion
e-|-----------------------------------------------------------|
B-|-----------------------------------------------------------|
G-|-----------------------------------------------------------|
D-|--9-9-9--9-9-9--9-9--5-5-5--5-5-5----9-9-9--9-9-9--9\11-9--|
A-|--9-9-9--9-9-9--9-9--5-5-5--5-5-5----9-9-9--9-9-9--9\11-9--|
D-|--9-9-9--9-9-9--9-9--5-5-5--5-5-5----9-9-9--9-9-9--9\11-9--|

e-|-------------------------------------------------------------------|
B-|-------------------------------------------------------------------|
G-|-------------------------------------------------------------------|
D-|--5-5-5--5-5-5--4-5-7-4--9-9-9--9-9-9--9-9--5-5-5--5-5-5--4-5-7-4--|
A-|--5-5-5--5-5-5--4-5-7-4--9-9-9--9-9-9--9-9--5-5-5--5-5-5--4-5-7-4--|
D-|--5-5-5--5-5-5--4-5-7-4--9-9-9--9-9-9--9-9--5-5-5--5-5-5--4-5-7-4--|

e-|---------------------------------------------------------------------|
B-|---------------------------------------------------------------------|
G-|---------------------------------------------------------------------|
D-|--9-9-9--9-9-9-------------5-5-5--5-5-5--5-5-5---2------12-12-12-12--|
A-|--9-9-9--9-9-9-------------5-5-5--5-5-5--5-5-5---2------12-12-12-12--|
D-|--9-9-9--9-9-9--9-11-12-9--5-5-5--5-5-5--5-5-5---2------12-12-12-12--|
                                           |-PM--|


Chords to play over solo (with distortion)
e-|---------------------|
B-|---------------------|
G-|---------------------|
D-|--9---5---4---2---7--|
A-|--9---5---4---2---7--|
D-|--9---5---4---2---7--|
     B5  G5  F#5 E5  A5

The solo is extremely easy to play, but you'll have to figure out the timing by
playing along with the song. This isn't %100 correct, but it's as close as I
could get it. Most of the notes are repeated a lot, and I didn't bother writing
them the exact number of times. This should give you a rough idea though. Also,
you'll need a wah pedal.

Solo 2 (w/ wah pedal) - 4:30
 E5                           B5
|---------------------------------------------------------------------------|
|---------------------------------------------------------------------------|
|11-11-11-11-11-11-11-11-11---11---11--11-11-11-9--8--8--8--8--8-8h9p8-8-8-8|
|---------------------------------------------------------------------------|
|---------------------------------------------------------------------------|
|---------------------------------------------------------------------------|
 ^^^^^^^^^^^^^^^^^^^^^^^^^^
 (gradually open wah pedal)


       G5          F#5 E5                        B5
|---------------------------------------------------------------------------|
|----6-7--7\11-9--7-6----------------------------\11--11--11-11-11\12-11/9--|
|--9-------------------9---9-9--9--9-7-9-9-9-9-9----------------------------|
|---------------------------------------------------------------------------|
|---------------------------------------------------------------------------|
|---------------------------------------------------------------------------|

                               G5         F#5 E5                         G5
|---------------------------------------------------------------------------|
|---------------------------------------------------------------------------|
|--11-9-8--8h9p8--8--8--8----6-7-7\11-9--7-6---------------------------6-7--|
|--------------------------9------------------9---9-9--9--9-7-9-9-9--9------|
|---------------------------------------------------------------------------|
|---------------------------------------------------------------------------|

                F#5 E5                            G5               E5
e-|----------------------------------------------------------------------|
B-|----------------------------------------------------------------------|
G-|--7\11-9--7-9\14-11---9-9-9--9-9-11-11-11----6-7-7\11-9--7-9\14-11~~--|
D-|-------------------------------------------9--------------------------|
A-|----------------------------------------------------------------------|
D-|----------------------------------------------------------------------|

     G5          A5              B5
e-|------------------------------------------------------|
B-|------------------------------------------------------|
G-|--------------\9-9-9---9-9-9--8--8--8h9p8-8-8--8---8--|
D-|--5---5--5-5------------------------------------------|
A-|------------------------------------------------------|
D-|------------------------------------------------------|

     G5          A5                B5
e-|--------------------------------------------------------|
B-|--------------------------------------------------------|
G-|--------------\9-9-9---9\11-11--8--8--8h9p8-8-8--8-8-8--|
D-|--5---5--5-5--------------------------------------------|
A-|--------------------------------------------------------|
D-|--------------------------------------------------------|

     G5         A5           B5
e-|------------------------------------------------------------|
B-|------------------------------------------------------------|
G-|------------------------------------------------------------|
D-|--5---5--5-5-2-2-2--2--2--2\4--4-4\5-5-5\7---5-4\5-4-5-4-4--|
A-|------------------------------------------------------------|
D-|------------------------------------------------------------|

     G5         A5            B5 vvvvvvvvvvvv(a lot of wah wah here)
e-|------------------------------------------|
B-|------------------------------------------|
G-|------------------------------------------|
D-|--5---5--5-5-2-2-2--1-2-4--4/5--5/7--7/9--|
A-|------------------------------------------|
D-|------------------------------------------|


It sounds like there is more lead being played in the background towards the end
of the song, but it's hard to hear exactly what it is.. if you want just improvise
over the B natural minor or B minor pentatonic scale with a wah pedal.


09 - FITRAT

TUning DROPPED D

INTRO:
(at the back xulfi is doin some pick slides)
e{------------------------------------------------------------]
B{------------------------------------------------------------]
G{------------------------------------------------------------]
D{------------------------------------------------------------]
A{------------------------------------------------------------]
D{-9-9-7-9-9-7-0-0-0-0-0-7-9-9-7-9-9-7-0----------------------]


e{------------------------------------------------------------]
B{------------------------------------------------------------]
G{------------------------------------------------------------]
D{-9-9-7-9-9-7-0-0-0-0-0-7-9-9-7-9-9-7-0------0-0-------------]
A{-9-9-7-9-9-7-0-0-0-0-0-7-9-9-7-9-9-7-0------0-0-------------]
D{-9-9-7-9-9-7-0-0-0-0-0-7-9-9-7-9-9-7-0------0-0-------------]

VERSE (NOTHING)

PRECHORUS
  BOL KABHI......        USS KA HAQ.......
e{--------------------][--------------------------------]
B{--------------------][--------------------------------]
G{--------------------][--------------------------------]
D{-----9---------7----][---------9----------0-----------]
A{-----9---------7----][---------9----------0-----------]
D{-----9---------7----][---------9----------0-----------]

TWICE

CHORUS
   HOOOOOO-ooooooooo  INSAAN!!!!!
e{------------------------------------------------------------]
B{------------------------------------------------------------]
G{------------------------------------------------------------]
D{-6-66-6-6-5-55-5-5--7-7-9-9-9-9---7-9-0-9-------------------]
A{-6-66-6-6-5-55-5-5--7-7-9-9-9-9---7-9-0-9-------------------]
D{-6-66-6-6-5-55-5-5--7-7-9-9-9-9---7-9-0-9-------------------]

POST CHORUS
RHYTHM
e{------------------------------------------------------------]
B{------------------------------------------------------------]
G{------------------------------------------------------------]
D{--9-9-99-9---8-8-88-8----9-9-99-9---0-0-00-0----------------]
A{--9-9-99-9---8-8-88-8----9-9-99-9---0-0-00-0----------------]
D{--9-9-99-9---8-8-88-8----9-9-99-9---0-0-00-0----------------]
LEAD
e{------------------------------------------------------------]
B{--12---------11----------12---------15-----LET RING---------]
G{--14b16------13b15-------14b16------17b19-------------------]
D{------------------------------------------------------------]
A{------------------------------------------------------------]
D{------------------------------------------------------------]

VERSE AND CHORUS ARE THE SOME

BRIDGE
HOOOOOOOOOOOO
e{------------------------------------------------------------]
B{------------------------------------------------------------]
G{------------------------------------------------------------]
D{-2-22-2-2-2--7-77-7-7-7--8-88-8-8-8-10-1010-10-10-10--------]
A{-2-22-2-2-2--7-77-7-7-7--8-88-8-8-8-10-1010-10-10-10--------]
D{-2-22-2-2-2--7-77-7-7-7--8-88-8-8-8-10-1010-10-10-10--------]

SOLO (REFERED TO FITRAT SOLO TAB

RHYTHM DURING FLANGE
e{--0------0------4------0------------------------------------]
B{--0------2------5------2------------------------------------]
G{--1------2------6------2------------------------------------]
D{--2------2------6------2------------------------------------]
A{--2------0------4------0------------------------------------]
D{--2---------------------------------------------------------]

DURING MAIN SOLO
e{------------------------------------------------------------]
B{------------------------------------------------------------]
G{------------------------------------------------------------]
D{--9------7------6------5------------------------------------]
A{--9------7------6------5------------------------------------]
D{--9------7------6------5------------------------------------]

e{------------------------------------------------------------]
B{------------------------------------------------------------]
G{------------------------------------------------------------]
D{--7--9-9--7--9-9-7--0---------------------------------------]
A{--7--9-9--7--9-9-7--0---------------------------------------]
D{--7--9-9--7--9-9-7--0---------------------------------------]
D{------------------------------------------------------------]

LEAD

/4
     W
  Gtr I
  ~                  ~~              ~                  ~~
  W  E  E  E   E  Q  W  E  E  E   E  W  E  E  E   E  Q  H  E  E  E  E  E  E  E  Q  E  Q  E  Q E E E  Q
|------------------------------------------------------------------------------------------------------|
|------------------------------------------------------------------------------------------------------|
|-8-12-13-12\-10\-8-13-12-13-12\-10\-8-12-13-12\-10\-8-13-13-13-13-13-13-13-13-13-13-12-12-10-8-7-8-10-|
|------------------------------------------------------------------------------------------------------|
|------------------------------------------------------------------------------------------------------|
|------------------------------------------------------------------------------------------------------|


   T   Q  E  Q  E  H     E  E  E E E E Q E E E Q E  E E Q E Q E Q E  E  E  E  E  E  E
|----------------------------------------------------------------------------------------|
|----------------------------------------------------------------------------------------|
|-11/-13-13-11-11-10b11r10-10-10-7-8-7---7-8-7-------------------------------------------|
|--------------------------------------8-------8-8h10p8-6-6-4-4-3-3/-4\-3\-1/-3/-4\-3----|
|----------------------------------------------------------------------------------------|
|----------------------------------------------------------------------------------------|


                                                                                  T        T        T
  T   Q  E  Q  E  Q E E E  Q  T   Q  E  Q  E  Q  S  S  S  S  S  H  E  E  E  E  E  E  E  E E  E  E  E  E  E
|----------------------------------------------------------------------------------------------------------|
|-----------------------------------------------------------------------15-------13-------15-------13------|
|10/-13-13-12-12-10-8-7-8-10-11/-13-13-11-11-10h11p10h11p10h11p10-10-11----10-11----10-11----10-11----10-11|
|----------------------------------------------------------------------------------------------------------|
|----------------------------------------------------------------------------------------------------------|
|----------------------------------------------------------------------------------------------------------|


   T        T  T  T  T            ~~
   E  T  T  T  E  E  E  E  E  E   W
|--------------------------------------|
|-13-----------------------------------|
|----10h11h16-10-11-10\-8\-6\-4/-11----|
|--------------------------------------|
|--------------------------------------|
|--------------------------------------|


  E   Q   Q   Q  E    Q   E  E E  E  E  E
|------------------|----------------------|
|------------------|-----------9----------|
|------------------|-----10-11---11-10----|
|-9/-11--11--11--9-|-11----------------11-|
|-7/--9---9---9--7-|--9-------------------|
|------------------|----------------------|


  E E   Q   Q   Q    E  Q   E  E E  E  E    E E
|------------------|---------------------|-------|
|------------------|-------------9-------|-------|
|------------------|-------10-11---11-10-|-------|
|-9-9/-11--11--11--|-9-11----------------|-11-9--|
|---7/--9---9---9--|-7--9----------------|-------|
|------------------|---------------------|-------|


  E   Q   Q   Q  E    Q   E  E E  E  E  E
|------------------|-----------9----------|
|------------------|----------------------|
|------------------|-----10-11---11-10----|
|-9/-11--11--11--9-|-11----------------11-|
|-7/--9---9---9--7-|--9-------------------|
|------------------|----------------------|


  E  E  E  E  E  E  E  E  E  E   S   S  S   S   S   S  E
|---12-15-15-12-15-15-12-14-14/-15/-14-12/-14\-12\-10\-8-|
|--------------------------------------------------------|
|--------------------------------------------------------|
|-9------------------------------------------------------|
|--------------------------------------------------------|
|--------------------------------------------------------|


  E   Q   Q   Q  E    Q   E  E E  E  E  E
|------------------|----------------------|
|------------------|-----------9----------|
|------------------|-----10-11---11-10----|
|-9/-11--11--11--9-|-11----------------11-|
|-7/--9---9---9--7-|--9-------------------|
|------------------|----------------------|


  E E   Q   Q   Q    E  Q   E  E E  E  E    E E
|------------------|---------------------|-------|
|------------------|-------------9-------|-------|
|------------------|-------10-11---11-10-|-------|
|-9-9/-11--11--11--|-9-11----------------|-11-9--|
|---7/--9---9---9--|-7--9----------------|-------|
|------------------|---------------------|-------|


   T              T                T
   E  E E  E E E  E  E   E  E E E  E  E W  H       W       W
|----------------------|-------------------------------------------|
|----------------------|-------------------------------------------|
|-11p10p7-10p7p5-11p10p|=7-10p7p5-11p10p7-16b17.5-14b15.5-13b14----|
|----------------------|-------------------------------------------|
|----------------------|-------------------------------------------|
|----------------------|-------------------------------------------|


Duration Legend
---------------
W - whole; H - half; Q - quarter; E - 8th; S - 16th; T - 32nd; X - 64th; a - acciaccatura
+ - note tied to previous; . - note dotted; .. - note double dotted
Uncapitalized letters represent notes that are staccato (1/2 duration)
Irregular groupings are notated above the duration line
Duration letters will always appear directly above the note/fret number it represents the
duration for.  Duration letters with no fret number below them represent rests.  Multi-
bar rests are notated in the form Wxn, where n is the number of bars to rest for.  Low
melody durations appear below the staff


10 - BURZUKH

Man this song is the most complicated song that i have tabbed out...So many chords that 
the same!! But a very nice

song at that...I tried to make this tab as clear as i could possibly make it..It took me 1 whole day!!!
------------------------------------------------------------------------------------------------------
Dm2: 00023x Bb: 003331 E: 133211 Gmaj:3200xx
Dm1: 000230 Bb2: 00333x F:557765 F#:577655
Dm: 000231 D: 000232 G:000233 A:002200
G5:688xxx A5:577xx G5:355xx F5:244xxx
E5:0220xx

Intro:

Dm2 E Bb

--1-------------|
3---------------|
------3---------|
----3-----------|
----------------|
----------------|

Bb2 Dm2 E Bb Dm1
------------------------------------------------------------
Distortion

Dm2 X8 E X8 Bb2 X8 Dm1 X8
-------------------------------------------------------------|
Dm-----------------------------------------------------------|E
Jala do aaa meri umeedon ko
--Bb-----------Dm1
Jalao kay hoor bhi ruk jaaye
---Dm-----------E
Mi-Mita do aaa meri khwahishon ko
----Bb-------------Dm1
Ki-kisay main-haai kuch bhi reh na jaaye

----------------------------------------|
----------------------------------------|
------------------0---------------------|
--0--3--0------0---0------0--5-0--------|
-3-3-----3----3-3---3---3--3----3-------|
----------------------------------------|
Dm1-------------------------------------|Dm
Khwaab ya haqiiqat
------E----------------Bb
Humm kaun hoon main is baar
--Dm1----------------------Dm
Kuch bhi nahin meray haath main
E------------------Bb--Dm1--D
Kaun hoon main laachaaaaaar
------------------------------------------------------------------------
electric guitar slides w/ distortion

Dm1----------------Dm-----Dm1
Khwab haqiqat tera wajooooood
Dm1-------------------------------G
Humm aur ek tha sath tha sath ka vaasta
Dm1---------------------Dm--------Dm1
Ab bhi teray haath main kuch nahin
Dm1---------------------Dm---------Dm1
Tab bhi teray haath main kuch na tha
--------------------------------------------------------------------------|
Dm------------------------------------------------------------------------|E
Saza do aaa mar dalo mujko
---Bb----------Dm1
Ke ab mujhe khwab bhi na aaye
---Dm-----------E
laylo aaa mujh khwaab meray
----Bb-------------Dm1-----------------D
Ke dil mai say umeed bhi mar jaayyyyeeee
--------------------------------------------------------------------------

0--0-------------------------------------|
0----0-0-------0--0-0-0--0---------------|
2------2---------2--------2--------------|
2------2-----0---------------------------|(Play for next verse or the chords)
0------0---0-----------------------------|
---------0-------------------------------|
A----------------------------------------|E5
Aaaaaaaaaaaaaaaaaaaaaaaaaaaaaaa (Next slide with base) (3:46)
Dm2----------------------E5
AAAAAAAAAAAAAAAAAAAAAAAAAAAAAA
Dm------------------------Bb2
Aaaaaaa main kahoon ab to kya
Dm-------------------Bb2
Aaaaaaa keh ab bacha hi nahi kuch bacha hi nahi
Dm----G-----------Bb2
Haaaaaa yeh soch hi reh gayi
----Dm------------G---------Bb
Keh main ab main hoon ke nahi

5-5--------------5-6-5----------8-5-8-7h8h7-5-7--8-10--10h11h10-8--10h11h10-8---------|
---8-6-5--8-6-5-5------6-5--6-5-------------------------------------------------------|
--------------------------------------------------------------------------------------|
--------------------------------------------------------------------------------------|
--------------------------------------------------------------------------------------|
--------------------------------------------------------------------------------------|

8h10--8s5--7h8h7-5s3---5--4h5h4-1-0--5-6-9-6h9---------4-5----------------------------|
----------------------6-------------------------6--5-6--------------------------------|
--------------------------------------------------------------------------------------|
--------------------------------------------------------------------------------------|
--------------------------------------------------------------------------------------|
--------------------------------------------------------------------------------------|

Dm----------E
Jala do aaa meri umeedon ko
---Bb-----------Dm1
Ke hoor bhi zindagi na chaahay
---Dm---------E
Sazaa do aaa maar daalo mujko
----Bb--------Dm1
ke ab mujhe khwab bhi na aaye
-------------------------------------------------------------------------------
Dm
Bhula do aa
E
saza do aa
Bb
jala do aa
Dm1
dua dua
F--------F#------F-------F#----F
Dua dua dua dua dua dua dua dua
Dm
Dua dua
Bb
Dua dua
Gmaj
Dua dua
Dm2
Dua dua
Dm
Dua dua
Bb
Dua dua
Gmaj
Dua dua
Dm
Dua dua

-----------------------------------------------------------------------------|
-----------------------------------------------------------------------------|
-----------------------------------------------------------------------------|
-12-12---12---12-12-12---12---12-12---12-12----------------------------------|
-12-12---12---12-12-12---12---12-12---12-12----------------------------------|
-10-10---10---10-10-10---10---10-10---10-10----------------------------------|

-----------------------------------------------------------------------------|
-----------------------------------------------------------------------------|
-----------------------------------------------------------------------------|
-12-12---12---12-12-12---12---12-12---12-12----------------------------------|
-12-12---12---12-12-12---12---12-12---12-12----------------------------------|
-10-10---10---10-10-10---10---10-10---10-10----------------------------------|

[DRUM ROLLS]


THERE YA GO, THE WHOLE IRTIQA ALBUM TAB COMPILATION XCEPT IRTIQA 1, 2 N' 3 CUZ THEY HAVE 
GUITARZ IN THEM.

LIMAJ_DAAS@HOTMAIL.COM
comments
We did not receive enough feedback on this tab! Please rate:
print report bad tab
1 2 3 4 5
I want to post or [tab]
guest
You may want to rate the tab now too:
select rating
Please do not post tabs as comments. Select "correction" instead!