Oops, an error
Loading. Please wait.

Rahguzar Tab

ver1
ver1

Whole song

Interactive

More versions @911Tabs.com
1,084 views 3 this week
2 commentsread comments
1 2 3 4 5
accurate
x 5
add to favorites launch autoscroll
font size
0
reset
Autoscroll
+/-
esc
set tempo
stop
WARNING: You are trying to view
                                    content from Ultimate-Guitar.com
                                    in an unauthorized application,
                                    which is prohibited.

                                    Please use an official Ultimate
                                    Guitar Tabs application for iPhone,
                                    iPad or Android to access legitimate
                                    chords, guitar, bass, and drum tabs
                                    from Ultimate-Guitar.com database.

                                    Type "ultimate guitar tabs" in Apple
                                    App Store's or Android Market's
                                    search to find the application.
Tuning: Drop D
Tabbed by: Ahsan Rabbani 
Any questions, corrections, etc: ahsan.rabbani@utoronto.ca

PM - palm mute
h - hammer on
p - pull off
/ - slide

Remember to tune your low E string down to D (two frets down).

INTRO x2
e-|------------------------------------------|
B-|------------------------------------------|
G-|------------------------------------------|
D-|-----------12-9------------7-----7-----9--|
A-|----9-12-9-------------5-----5-----5------|
D-|--9-----------------5----5-----5-----5----|

e-|------------------------------------------|
B-|----------------------------------0-0-0---|
G-|----------------------------------0-0-0---|
D-|---------7/5---5/4---4/2---2h4\5--5-5-4---|
A-|-----5------------------------------------|
D-|--0----0-----0-----0-----0----------------|


0:27
These are the chords used in the verse. You can figure out
when to arpeggiate and when to strum them.
e-|--0---0------0----0--|
B-|--0---0------0----0--|
G-|--4---2------1----2--|
D-|--4---2------1----2--|
A-|--2---0------0----0--|
D-|--x---x------x----x--|
     B   Asus2  ??   Asus2
                ^^-I'm not too sure about this one. Let me know if you
                   find the right chord.


Solo 1 - 1:34
e-|----------------------12-11/7---------------------10-----|
B-|--7\10-7-10-10\12-------------12-10-12------10/12----12--|
G-|---------------------------------------------------------|
D-|---------------------------------------------------------|
A-|---------------------------------------------------------|
D-|---------------------------------------------------------|


GUITAR 1
2:13 - play these with distortion
e-|-----------------|
B-|-----------------|
G-|-----------------|
D-|--9---5---2---7--|
A-|--9---5---2---7--|
D-|--9---5---2---7--|
     B5  G5  E5  A5

B5                  G5
Arsh ko choomtey ho aaj
               E5
Bhool gaye woh raaz
       G5         A5
Maut talak hein dafan
B5               G5
Rah badal kay jo chaley
              E5
Ab ruk na pao gai
          G5  A5
Manzil to hai adum

E5         G5    A5
Toro in dar-o-deewar kai is saher ko

E5          A5     B5
Chalo soow-e-rahguzar


INTRO x2


3:58 - with distortion
e-|-----------------------------------------------------------|
B-|-----------------------------------------------------------|
G-|-----------------------------------------------------------|
D-|--9-9-9--9-9-9--9-9--5-5-5--5-5-5----9-9-9--9-9-9--9\11-9--|
A-|--9-9-9--9-9-9--9-9--5-5-5--5-5-5----9-9-9--9-9-9--9\11-9--|
D-|--9-9-9--9-9-9--9-9--5-5-5--5-5-5----9-9-9--9-9-9--9\11-9--|

e-|-------------------------------------------------------------------|
B-|-------------------------------------------------------------------|
G-|-------------------------------------------------------------------|
D-|--5-5-5--5-5-5--4-5-7-4--9-9-9--9-9-9--9-9--5-5-5--5-5-5--4-5-7-4--|
A-|--5-5-5--5-5-5--4-5-7-4--9-9-9--9-9-9--9-9--5-5-5--5-5-5--4-5-7-4--|
D-|--5-5-5--5-5-5--4-5-7-4--9-9-9--9-9-9--9-9--5-5-5--5-5-5--4-5-7-4--|

e-|---------------------------------------------------------------------|
B-|---------------------------------------------------------------------|
G-|---------------------------------------------------------------------|
D-|--9-9-9--9-9-9-------------5-5-5--5-5-5--5-5-5---2------12-12-12-12--|
A-|--9-9-9--9-9-9-------------5-5-5--5-5-5--5-5-5---2------12-12-12-12--|
D-|--9-9-9--9-9-9--9-11-12-9--5-5-5--5-5-5--5-5-5---2------12-12-12-12--|
                                           |-PM--|


Chords to play over solo (with distortion)
e-|---------------------|
B-|---------------------|
G-|---------------------|
D-|--9---5---4---2---7--|
A-|--9---5---4---2---7--|
D-|--9---5---4---2---7--|
     B5  G5  F#5 E5  A5
               
The solo is extremely easy to play, but you'll have to figure out the timing by
playing along with the song. This isn't %100 correct, but it's as close as I
could get it. Most of the notes are repeated a lot, and I didn't bother writing
them the exact number of times. This should give you a rough idea though. Also,
you'll need a wah pedal.
 
Solo 2 (w/ wah pedal) - 4:30
 E5                           B5
|---------------------------------------------------------------------------|
|---------------------------------------------------------------------------|
|11-11-11-11-11-11-11-11-11---11---11--11-11-11-9--8--8--8--8--8-8h9p8-8-8-8|
|---------------------------------------------------------------------------|
|---------------------------------------------------------------------------|
|---------------------------------------------------------------------------|
 ^^^^^^^^^^^^^^^^^^^^^^^^^^
 (gradually open wah pedal)


       G5          F#5 E5                        B5
|---------------------------------------------------------------------------|
|----6-7--7\11-9--7-6----------------------------\11--11--11-11-11\12-11/9--|
|--9-------------------9---9-9--9--9-7-9-9-9-9-9----------------------------|
|---------------------------------------------------------------------------|
|---------------------------------------------------------------------------|
|---------------------------------------------------------------------------|

                               G5         F#5 E5                         G5
|---------------------------------------------------------------------------|
|---------------------------------------------------------------------------|
|--11-9-8--8h9p8--8--8--8----6-7-7\11-9--7-6---------------------------6-7--|
|--------------------------9------------------9---9-9--9--9-7-9-9-9--9------|
|---------------------------------------------------------------------------|
|---------------------------------------------------------------------------|

                F#5 E5                            G5               E5
e-|----------------------------------------------------------------------|
B-|----------------------------------------------------------------------|
G-|--7\11-9--7-9\14-11---9-9-9--9-9-11-11-11----6-7-7\11-9--7-9\14-11~~--|
D-|-------------------------------------------9--------------------------|
A-|----------------------------------------------------------------------|
D-|----------------------------------------------------------------------|

     G5          A5              B5
e-|------------------------------------------------------|
B-|------------------------------------------------------|
G-|--------------\9-9-9---9-9-9--8--8--8h9p8-8-8--8---8--|
D-|--5---5--5-5------------------------------------------|
A-|------------------------------------------------------|
D-|------------------------------------------------------|

     G5          A5                B5
e-|--------------------------------------------------------|
B-|--------------------------------------------------------|
G-|--------------\9-9-9---9\11-11--8--8--8h9p8-8-8--8-8-8--|
D-|--5---5--5-5--------------------------------------------|
A-|--------------------------------------------------------|
D-|--------------------------------------------------------|

     G5         A5           B5
e-|------------------------------------------------------------|
B-|------------------------------------------------------------|
G-|------------------------------------------------------------|
D-|--5---5--5-5-2-2-2--2--2--2\4--4-4\5-5-5\7---5-4\5-4-5-4-4--|
A-|------------------------------------------------------------|
D-|------------------------------------------------------------|

     G5         A5            B5 vvvvvvvvvvvv(a lot of wah wah here)
e-|------------------------------------------|
B-|------------------------------------------|
G-|------------------------------------------|
D-|--5---5--5-5-2-2-2--1-2-4--4/5--5/7--7/9--|
A-|------------------------------------------|
D-|------------------------------------------|


It sounds like there is more lead being played in the background towards the end
of the song, but it's hard to hear exactly what it is.. if you want just improvise
over the B natural minor or B minor pentatonic scale with a wah pedal.


Lyrics

Chal dar badar ho
Kitna chalo gai?
Tum keh paikar-e-zo
Saya raho gai?

Arsh ko choomtey ho aaj
Bhool kai woh zaat
Jhoot taley hai dafan
Rah badal keh jo chaley
Lout aa na pao gai
Dhaltey rahein gai qadam

Tum rooth kar
Jao gai kahaan?
Meray paas tum
Reh jao yahaan

Arsh ko choomtey ho aaj
Bhool gaye woh raaz
Maut talak hein dafan
Rah badal kay jo chaley
Ab ruk na pao gai
Manzil to hai adum

Toro in dar-o-deewar kai is saher ko
Chalo soow-e-rahguzar

Jao gai kahaan...


ahsan.rabbani@utoronto.ca
comments
print report bad tab
2 comments total.
0 reply
xaffaralishah wrote on September 22 2010, 05:33 am

great tab...u can use A7 sus..chord there2nd fret D string and 1st fret of G...it sounds close!!

0 reply
Farzan Hussain wrote on June 29 2013, 02:55 pm

One suggestion for the first solo:
e)-7/10-7-10-12----------10-12-10-12/10------12
b)---------------12-11-7-----------------10----

I want to post or [tab]
guest
You may want to rate the tab now too:
select rating
Please do not post tabs as comments. Select "correction" instead!