Oops, an error
Loading. Please wait.

Replica Tab

916 views 3 this week
no commentswrite comment
1 2 3 4 5
please rate
Autoscroll
+/-
esc
set tempo
stop
Contributor
Difficulty
Tuning
intermediate
B E A D F# B
Hey! There's an official Ultimate Guitar app which is ideal
for learning songs when you're away from computer. Get the app
WARNING: You are trying to view
                                    content from Ultimate-Guitar.com
                                    in an unauthorized application,
                                    which is prohibited.

                                    Please use an official Ultimate
                                    Guitar Tabs application for iPhone,
                                    iPad or Android to access legitimate
                                    chords, guitar, bass, and drum tabs
                                    from Ultimate-Guitar.com database.

                                    Type "ultimate guitar tabs" in Apple
                                    App Store's or Android Market's
                                    search to find the application.
    PM-----------------------------------------------------------|
    E E E E E E E E   Q  E E E E Q    E E E E E E E E   Q  E E E E Q   3x
||------------------|---------------|-----------------|----------------||
||------------------|---------------|-----------------|----------------||
||o-----------------|---------------|-----------------|---------------o||
||------------------|---------------|-----------------|----------------||
||o-----------------|---------------|-----------------|---------------o||
||------------------|----------2----|-----------------|----------------||
||--2-2-2-2-2-2-2-5-|----5-5-5------|-4-4-4-4-4-4-4-5-|----5-5-5-3-----||


  C#                   E            Eb                E
  PM----------------------------------------------------------------|
  E E E E E E E E   Q  E E E E Q    E E E E E E E E   E E E E E E E E
|-----------------|---------------|-----------------|------------------|
|-----------------|---------------|-----------------|------------------|
|-----------------|---------------|-----------------|------------------|
|-----------------|---------------|-----------------|------------------|
|-----------------|---------------|-----------------|------------------|
|-----------------|----------2----|-----------------|------------------|
|-2-2-2-2-2-2-2-5-|----5-5-5------|-4-4-4-4-4-4-4-4-|-5-5-5-5-3-3-3-3--|


    C#5       E5            B5/F#    B/Eb      E5            D5
    H    Q.   E   +Q   Q  E E +Q     H    Q.   E   +Q   Q  E E +Q    3x
||--------------|------------------|-------------|-------------------||
||--------------|------------------|-------------|-------------------||
||o-------------|------------------|-------------|------------------o||
||--------------|------------------|-------------|-------------------||
||o-------------|------------------|-------------|------------------o||
||--4----4----7-|-(7)--7--7-7-(7)--|-7----7----7-|-(7)--7--7-5-(5)---||
||--2----2----5-|-(5)--5--5-7-(7)--|-4----4----5-|-(5)--5--5-3-(3)---||


  C#5       E5            B5/F#    B/Eb      E5     E     D
                                                    PM------|
  H    Q.   E   +Q   Q  E E +Q     H    Q.   E   Q  E E E E Q
|-------------|------------------|-------------|--------------|
|-------------|------------------|-------------|--------------|
|-------------|------------------|-------------|--------------|
|-------------|------------------|-------------|--------------|
|-------------|------------------|-------------|--------------|
|-4----4----7-|-(7)--7--7-7-(7)--|-7----7----7-|--------------|
|-2----2----5-|-(5)--5--5-7-(7)--|-4----4----5-|----5-5-5-3---|


   Verse 1
    C#                   E            Eb                   E     D
    PM-----------------------------------------------------------|
    E E E E E E E E   Q  E E E E Q    E E E E E E E E   Q  E E E E Q   3x
||------------------|---------------|-----------------|----------------||
||------------------|---------------|-----------------|----------------||
||o-----------------|---------------|-----------------|---------------o||
||------------------|---------------|-----------------|----------------||
||o-----------------|---------------|-----------------|---------------o||
||------------------|----------2----|-----------------|----------------||
||--2-2-2-2-2-2-2-5-|----5-5-5------|-4-4-4-4-4-4-4-5-|----5-5-5-3-----||


  C#                   E            Eb                E       D
  PM----------------------------------------------------------------|
  E E E E E E E E   Q  E E E E Q    E E E E E E E E   E E E E E E E E
|-----------------|---------------|-----------------|------------------|
|-----------------|---------------|-----------------|------------------|
|-----------------|---------------|-----------------|------------------|
|-----------------|---------------|-----------------|------------------|
|-----------------|---------------|-----------------|------------------|
|-----------------|----------2----|-----------------|------------------|
|-2-2-2-2-2-2-2-5-|----5-5-5------|-4-4-4-4-4-4-4-4-|-5-5-5-5-3-3-3-3--|


  C#5       E5            B5/F#    B/Eb      E5            D5
  H    Q.   E   +Q   Q  E E +Q     H    Q.   E   +Q   Q  E E +Q
|-------------|------------------|-------------|-----------------|
|-------------|------------------|-------------|-----------------|
|-------------|------------------|-------------|-----------------|
|-------------|------------------|-------------|-----------------|
|-------------|------------------|-------------|-----------------|
|-4----4----7-|-(7)--7--7-7-(7)--|-7----7----7-|-(7)--7--7-5-(5)-|
|-2----2----5-|-(5)--5--5-7-(7)--|-4----4----5-|-(5)--5--5-3-(3)-|


  C#5       E5            B5/F#    B/Eb      E5     E     D
                                                    PM----|
  H    Q.   E   +Q   Q  E E +Q     H    Q.   E   Q  E E E E Q
|-------------|------------------|-------------|--------------|
|-------------|------------------|-------------|--------------|
|-------------|------------------|-------------|--------------|
|-------------|------------------|-------------|--------------|
|-------------|------------------|-------------|--------------|
|-4----4----7-|-(7)--7--7-7-(7)--|-7----7----7-|--------------|
|-2----2----5-|-(5)--5--5-7-(7)--|-4----4----5-|----5-5-5-3---|


   Verse 2
    C#                   E            Eb                   E
    PM-----------------------------------------------------------|
    E E E E E E E E   Q  E E E E Q    E E E E E E E E   Q  E E E E Q   4x
||------------------|---------------|-----------------|----------------||
||------------------|---------------|-----------------|----------------||
||o-----------------|---------------|-----------------|---------------o||
||------------------|---------------|-----------------|----------------||
||o-----------------|---------------|-----------------|---------------o||
||------------------|----------2----|-----------------|----------------||
||--2-2-2-2-2-2-2-5-|----5-5-5------|-4-4-4-4-4-4-4-5-|----5-5-5-3-----||


  C#                E                 Eb                E       D
  PM------------------------------------------------------------------|
  E E E E E E E E   E E E E E E E E   E E E E E E E E   E E E E E E E E
|-----------------|-----------------|-----------------|------------------|
|-----------------|-----------------|-----------------|------------------|
|-----------------|-----------------|-----------------|------------------|
|-----------------|-----------------|-----------------|------------------|
|-----------------|-----------------|-----------------|------------------|
|-----------------|---------2-2-2-2-|-----------------|------------------|
|-2-2-2-2-2-2-2-2-|-5-5-5-5---------|-4-4-4-4-4-4-4-4-|-5-5-5-5-3-3-3-3--|


  C#                E       F#
  PM------------------------------|
  E E E E E E E E   E E E E E E E E
|-----------------|-----------------|
|-----------------|-----------------|
|-----------------|-----------------|
|-----------------|-----------------|
|-----------------|-----------------|
|-----------------|---------2-2-2-2-|
|-2-2-2-2-2-2-2-2-|-5-5-5-5---------|


  Eb                                E               D
  PM--------------------------------------------------------------|
  S S S S S S S S S S S S S S S S   S S S S S S S S S S S S S S S S
|---------------------------------|----------------------------------|
|---------------------------------|----------------------------------|
|---------------------------------|----------------------------------|
|---------------------------------|----------------------------------|
|---------------------------------|----------------------------------|
|---------------------------------|----------------------------------|
|-4-4-4-4-4-4-4-4-4-4-4-4-4-4-4-4-|-5-5-5-5-5-5-5-5-3-3-3-3-3-3-3-3--|


   Chorus
    E5   F#5B/Eb                     F#5  C#5C#/F
    H    Q  Q    +E  E E E E E E E   H    Q  Q    +E  E E E E E E E
||-------------|-------------------|------------|-------------------|
||-------------|-------------------|------------|-------------------|
||o------------|-------------------|------------|-------------------|
||-------------|-------------------|------------|-------------------|
||o------------|-------------------|------------|-------------------|
||--7----9--7--|-(7)-7-7-7-7-7-7-7-|-9----9--9--|-(9)-9-9-9-9-9-9-9-|
||--5----7--4--|-(4)-4-4-4-4-4-4-4-|-7----9--6--|-(6)-6-6-6-6-6-6-6-|


  E5   F#5B/Eb                     B C#
                                   PM--------------------------------|
  H    Q  Q    +E  E E E E E E E   T T S S S Q  Q  E E   +E  E Q  Q  Q
|------------|-------------------|---------------------|-----------------||
|------------|-------------------|---------------------|-----------------||
|------------|-------------------|---------------------|----------------o||
|------------|-------------------|---------------------|-----------------||
|------------|-------------------|---------------------|----------------o||
|-7----9--7--|-(7)-7-7-7-7-7-7-7-|---------------------|-----------------||
|-5----7--4--|-(4)-4-4-4-4-4-4-4-|-0-2-2-2-2-2--2--2-2-|-(2)-2-2--2--2---||


    B C#
    PM--------------------------------|
    T T S S S Q  Q  E E   +E  E Q  Q  Q  3x
||----------------------|----------------||
||----------------------|----------------||
||o---------------------|---------------o||
||----------------------|----------------||
||o---------------------|---------------o||
||----------------------|----------------||
||--0-2-2-2-2-2--2--2-2-|-(2)-2-2--2--2--||


  C#                   E            Eb                   E
  PM-----------------------------------------------------------|
  E E E E E E E E   Q  E E E E Q    E E E E E E E E   Q  E E E E Q
|-----------------|---------------|-----------------|--------------|
|-----------------|---------------|-----------------|--------------|
|-----------------|---------------|-----------------|--------------|
|-----------------|---------------|-----------------|--------------|
|-----------------|---------------|-----------------|--------------|
|-----------------|----------2----|-----------------|--------------|
|-2-2-2-2-2-2-2-5-|----5-5-5------|-4-4-4-4-4-4-4-5-|----5-5-5-3---|


  C#                   E            Eb                E
  PM----------------------------------------------------------------|
  E E E E E E E E   Q  E E E E Q    E E E E E E E E   E E E E E E E E
|-----------------|---------------|-----------------|------------------|
|-----------------|---------------|-----------------|------------------|
|-----------------|---------------|-----------------|------------------|
|-----------------|---------------|-----------------|------------------|
|-----------------|---------------|-----------------|------------------|
|-----------------|----------2----|-----------------|------------------|
|-2-2-2-2-2-2-2-5-|----5-5-5------|-4-4-4-4-4-4-4-4-|-5-5-5-5-3-3-3-3--|


  C#5       E5            B5/F#    B/Eb      E5            D5
  H    Q.   E   +Q   Q  E E +Q     H    Q.   E   +Q   Q  E E +Q
|-------------|------------------|-------------|-----------------|
|-------------|------------------|-------------|-----------------|
|-------------|------------------|-------------|-----------------|
|-------------|------------------|-------------|-----------------|
|-------------|------------------|-------------|-----------------|
|-4----4----7-|-(7)--7--7-7-(7)--|-7----7----7-|-(7)--7--7-5-(5)-|
|-2----2----5-|-(5)--5--5-7-(7)--|-4----4----5-|-(5)--5--5-3-(3)-|


  C#5       E5            B5/F#    B/Eb      E5     E
                                                    PM------|
  H    Q.   E   +Q   Q  E E +Q     H    Q.   E   Q  E E E E Q
|-------------|------------------|-------------|--------------|
|-------------|------------------|-------------|--------------|
|-------------|------------------|-------------|--------------|
|-------------|------------------|-------------|--------------|
|-------------|------------------|-------------|--------------|
|-4----4----7-|-(7)--7--7-7-(7)--|-7----7----7-|--------------|
|-2----2----5-|-(5)--5--5-7-(7)--|-4----4----5-|----5-5-5-3---|


   Verse 3
    C#                   E            Eb                   E
    PM-----------------------------------------------------------|
    E E E E E E E E   Q  E E E E Q    E E E E E E E E   Q  E E E E Q
||------------------|---------------|-----------------|----------------||
||------------------|---------------|-----------------|----------------||
||o-----------------|---------------|-----------------|---------------o||
||------------------|---------------|-----------------|----------------||
||o-----------------|---------------|-----------------|---------------o||
||------------------|----------2----|-----------------|----------------||
||--2-2-2-2-2-2-2-5-|----5-5-5------|-4-4-4-4-4-4-4-5-|----5-5-5-3-----||


  C#                E                 Eb                E
  PM------------------------------------------------------------------|
  E E E E E E E E   E E E E E E E E   E E E E E E E E   E E E E E E E E
|-----------------|-----------------|-----------------|------------------|
|-----------------|-----------------|-----------------|------------------|
|-----------------|-----------------|-----------------|------------------|
|-----------------|-----------------|-----------------|------------------|
|-----------------|-----------------|-----------------|------------------|
|-----------------|---------2-2-2-2-|-----------------|------------------|
|-2-2-2-2-2-2-2-2-|-5-5-5-5---------|-4-4-4-4-4-4-4-4-|-5-5-5-5-3-3-3-3--|


  C#                E       F#
  PM------------------------------|
  E E E E E E E E   E E E E E E E E
|-----------------|-----------------|
|-----------------|-----------------|
|-----------------|-----------------|
|-----------------|-----------------|
|-----------------|-----------------|
|-----------------|---------2-2-2-2-|
|-2-2-2-2-2-2-2-2-|-5-5-5-5---------|


  Eb                                E               D
  PM--------------------------------------------------------------|
  S S S S S S S S S S S S S S S S   S S S S S S S S S S S S S S S S
|---------------------------------|----------------------------------|
|---------------------------------|----------------------------------|
|---------------------------------|----------------------------------|
|---------------------------------|----------------------------------|
|---------------------------------|----------------------------------|
|---------------------------------|----------------------------------|
|-4-4-4-4-4-4-4-4-4-4-4-4-4-4-4-4-|-5-5-5-5-5-5-5-5-3-3-3-3-3-3-3-3--|


   Out-Chorus
    E5   F#5B/Eb                     F#5  C#5C#/F
    H    Q  Q    +E  E E E E E E E   H    Q  Q    +E  E E E E E E E
||-------------|-------------------|------------|-------------------|
||-------------|-------------------|------------|-------------------|
||o------------|-------------------|------------|-------------------|
||-------------|-------------------|------------|-------------------|
||o------------|-------------------|------------|-------------------|
||--7----9--7--|-(7)-7-7-7-7-7-7-7-|-9----9--9--|-(9)-9-9-9-9-9-9-9-|
||--5----7--4--|-(4)-4-4-4-4-4-4-4-|-7----9--6--|-(6)-6-6-6-6-6-6-6-|


  E5   F#5B/Eb                     B C#
                                   PM--------------------------------|
  H    Q  Q    +E  E E E E E E E   T T S S S Q  Q  E E   +E  E Q  Q  Q   4x
|------------|-------------------|---------------------|-----------------||
|------------|-------------------|---------------------|-----------------||
|------------|-------------------|---------------------|----------------o||
|------------|-------------------|---------------------|-----------------||
|------------|-------------------|---------------------|----------------o||
|-7----9--7--|-(7)-7-7-7-7-7-7-7-|---------------------|-----------------||
|-5----7--4--|-(4)-4-4-4-4-4-4-4-|-0-2-2-2-2-2--2--2-2-|-(2)-2-2--2--2---||


  B C#
  PM--------------------------------|
  T T S S S Q  Q  E E   +E  E Q  Q  Q
|---------------------|---------------|
|---------------------|---------------|
|---------------------|---------------|
|---------------------|---------------|
|---------------------|---------------|
|---------------------|---------------|
|-0-2-2-2-2-2--2--2-2-|-(2)-2-2--2--2-|


    C#
    TP         TP
    W          W     4x
||-----------|-------||
||-----------|-------||
||o----------|------o||
||-----------|-------||
||o----------|------o||
||-----------|-------||
||--2--------|-2-----||


    E5   F#5B/Eb                     F#5  C#5C#/F
    H    Q  Q    +E  E E E E E E E   H    Q  Q    +E  E E E E E E E
||-------------|-------------------|------------|-------------------|
||-------------|-------------------|------------|-------------------|
||o------------|-------------------|------------|-------------------|
||-------------|-------------------|------------|-------------------|
||o------------|-------------------|------------|-------------------|
||--7----9--7--|-(7)-7-7-7-7-7-7-7-|-9----9--9--|-(9)-9-9-9-9-9-9-9-|
||--5----7--4--|-(4)-4-4-4-4-4-4-4-|-7----9--6--|-(6)-6-6-6-6-6-6-6-|


  E5   F#5B/Eb                     B C#
                                   PM--------------------------------|
  H    Q  Q    +E  E E E E E E E   T T S S S Q  Q  E E   +E  E Q  Q  Q   4x
|------------|-------------------|---------------------|-----------------||
|------------|-------------------|---------------------|-----------------||
|------------|-------------------|---------------------|----------------o||
|------------|-------------------|---------------------|-----------------||
|------------|-------------------|---------------------|----------------o||
|-7----9--7--|-(7)-7-7-7-7-7-7-7-|---------------------|-----------------||
|-5----7--4--|-(4)-4-4-4-4-4-4-4-|-0-2-2-2-2-2--2--2-2-|-(2)-2-2--2--2---||


  B C#
  PM--------------------------------|
  T T S S S Q  Q  E E   +E  E Q  Q  Q
|---------------------|---------------|
|---------------------|---------------|
|---------------------|---------------|
|---------------------|---------------|
|---------------------|---------------|
|---------------------|---------------|
|-0-2-2-2-2-2--2--2-2-|-(2)-2-2--2--2-|


    C#
    TP         TP
    W          W     4x
||-----------|-------||
||-----------|-------||
||o----------|------o||
||-----------|-------||
||o----------|------o||
||-----------|-------||
||--2--------|-2-----||


  C#5
  PM-----------------------------------|
  W          +W           +W           +W
|----------|------------|------------|--------*|
|----------|------------|------------|--------*|
|----------|------------|------------|--------*|
|----------|------------|------------|--------*|
|----------|------------|------------|--------*|
|-4--------|-(4)--------|-(4)--------|-(4)----*|
|-2--------|-(2)--------|-(2)--------|-(2)----*|
comments
We did not receive enough feedback on this tab! Please rate:
print report bad tab
1 2 3 4 5
I want to post or [tab]
guest
You may want to rate the tab now too:
select rating
Please do not post tabs as comments. Select "correction" instead!