Oops, an error
Loading. Please wait.

Resign To Surrender Tab

ver1
ver1

Whole song

Interactive

More versions @911Tabs.com
2,962 views 3 this week
3 commentsread comments
1 2 3 4 5
accurate
x 6
Autoscroll
+/-
esc
set tempo
stop
Contributor
Hey! There's an official Ultimate Guitar app which is ideal
for learning songs when you're away from computer. Get the app
WARNING: You are trying to view
                                    content from Ultimate-Guitar.com
                                    in an unauthorized application,
                                    which is prohibited.

                                    Please use an official Ultimate
                                    Guitar Tabs application for iPhone,
                                    iPad or Android to access legitimate
                                    chords, guitar, bass, and drum tabs
                                    from Ultimate-Guitar.com database.

                                    Type "ultimate guitar tabs" in Apple
                                    App Store's or Android Market's
                                    search to find the application.
This is NOT tabbed by me, this if from the guitar pro file


  PM PM PM PM PM PM PM PM
  S  S  S  S  S  S  S  S  H
-----------------------------------|
-----------------------------------|
-----------------------------------|
--------------------------4--------|
--------------------------4--------|
--2--2--2--2--2--2--2--2--2--------|
-----------------------------------|


  PM PM PM PM PM PM PM PM
  S  S  S  S  S  S  S  S  H
-----------------------------------|
-----------------------------------|
-----------------------------------|
--------------------------3--------|
--------------------------3--------|
--1--1--1--1--1--1--1--1--1--------|
-----------------------------------|


  PM PM PM PM PM PM PM PM
  S  S  S  S  S  S  S  S  Q.     E
------------------------------------|
------------------------------------|
------------------------------------|
--------------------------4---------|
--------------------------4---------|
--2--2--2--2--2--2--2--2--2---------|
---------------------------------2--|


  E  E  E  E  E  E   E  E
----------------------------|
----------------------------|
----------------------------|
----------------------------|
----------------------------|
--1--2--1-------------------|
-----------0--2--Lb--2--Lb--|


  PM PM PM PM PM PM PM PM
  S  S  S  S  S  S  S  S  H
-----------------------------------|
-----------------------------------|
-----------------------------------|
--------------------------4--------|
--------------------------4--------|
--2--2--2--2--2--2--2--2--2--------|
-----------------------------------|


  PM PM PM PM PM PM PM PM      PM
  S  S  S  S  S  S  S  S  Q    E  E
-------------------------------------|
-------------------------------------|
-------------------------------------|
--------------------------3-------3--|
--------------------------3----3--3--|
--1--1--1--1--1--1--1--1--1----1--1--|
-------------------------------------|


  PM PM PM PM PM PM PM PM
  S  S  S  S  S  S  S  S  Q.     E
------------------------------------|
------------------------------------|
------------------------------------|
--------------------------4---------|
--------------------------4---------|
--2--2--2--2--2--2--2--2--2---------|
---------------------------------3--|


     PM PM      PM        PM PM   NH
  E  S  S  S  S S  S S  S S  S    Q
----------------------------------------|
----------------------------------------|
----------------------------------------|
----------------------------------------|
----------------------------------------|
----------------------------------------|
--2--2--2--2s-6-6--6-6s-9-9--9--<>9~----|


  PM PM PM PM PM PM PM PM
  S  S  S  S  S  S  S  S  H
-----------------------------------|
-----------------------------------|
-----------------------------------|
--------------------------4--------|
--------------------------4--------|
--2--2--2--2--2--2--2--2--2--------|
-----------------------------------|


  PM PM PM PM PM PM PM PM
  S  S  S  S  S  S  S  S  H
-----------------------------------|
-----------------------------------|
-----------------------------------|
--------------------------3--------|
--------------------------3--------|
--1--1--1--1--1--1--1--1--1--------|
-----------------------------------|


  PM PM PM PM PM PM PM PM
  S  S  S  S  S  S  S  S  Q.     E
------------------------------------|
------------------------------------|
------------------------------------|
--------------------------4---------|
--------------------------4---------|
--2--2--2--2--2--2--2--2--2---------|
---------------------------------2--|


  E  E  E  E  E  E   E  E
----------------------------|
----------------------------|
----------------------------|
----------------------------|
----------------------------|
--1--2--1-------------------|
-----------0--2--Lb--2--Lb--|


  PM PM PM PM PM PM PM PM
  S  S  S  S  S  S  S  S  H
-----------------------------------|
-----------------------------------|
-----------------------------------|
--------------------------4--------|
--------------------------4--------|
--2--2--2--2--2--2--2--2--2--------|
-----------------------------------|


  PM PM PM PM PM PM PM PM      PM
  S  S  S  S  S  S  S  S  Q    E  E
-------------------------------------|
-------------------------------------|
-------------------------------------|
--------------------------3-------3--|
--------------------------3----3--3--|
--1--1--1--1--1--1--1--1--1----1--1--|
-------------------------------------|


  H.           E  E     W
---------------------|-------------------|
---------------------|-------------------|
---------------------|-------------------|
---------------------|-------------------|
--2------------------|--4----------------|
--2------------------|--4----------------|
--0------------3--0--|--2----------------|


       PM PM   PM PM PM   PM PM PM PM PM PM
  S  S S  S  S S  S  S  S E  S  S  S  S  S
--------------------------------------------|
--------------------------------------------|
--------------------------------------------|
--------------------------------------------|
--------------------------------------------|
--------------------------------------------|
--2h-4-4--4--L-4--4--4--L-4--4--4--4--4--4--|


       PM PM   PM PM PM
  S  S S  S  S S  S  S  S S S S S S E
---------------------------------------|
---------------------------------------|
---------------------------------------|
---------------------------------------|
---------------------------------------|
------------------------------6-7-6----|
--2h-4-4--4--L-4--4--4--5-4-5-------8--|


       PM PM   PM PM PM   PM PM PM PM PM PM
  S  S S  S  S S  S  S  S E  S  S  S  S  S
--------------------------------------------|
--------------------------------------------|
--------------------------------------------|
--------------------------------------------|
--------------------------------------------|
--------------------------------------------|
--2h-4-4--4--L-4--4--4--L-4--4--4--4--4--4--|


       PM PM PM PM      PM PM PM PM      PM P
  S  S S  S  S  S  S  S S  S  S  S  S  S S  S
----------------------------------------------|
----------------------------------------------|
----------------------------------------------|
----------------------------------------------|
----------------------------------------------|
----------------------------------------------|
--4s-5-5--5--5--5--5s-2-2--2--2--2--2s-5-5--5-|


       PM PM   PM PM PM   PM PM PM PM PM PM
  S  S S  S  S S  S  S  S E  S  S  S  S  S
--------------------------------------------|
--------------------------------------------|
--------------------------------------------|
--------------------------------------------|
--------------------------------------------|
--------------------------------------------|
--2h-4-4--4--L-4--4--4--L-4--4--4--4--4--4--|


       PM PM   PM PM PM
  S  S S  S  S S  S  S  S S S S S S E
---------------------------------------|
---------------------------------------|
---------------------------------------|
---------------------------------------|
---------------------------------------|
------------------------------6-7-6----|
--2h-4-4--4--L-4--4--4--5-4-5-------8--|


  H        H           H        H
--------------------|--------------------|
--------------------|--------------------|
--------------------|--------------------|
--------------------|--4--------3--------|
--6--------5--------|--4--------3--------|
--6--------5--------|--2--------1--------|
--4--------3--------|--------------------|


       PM PM   PM PM PM   PM PM PM PM PM PM
  S  S S  S  S S  S  S  S E  S  S  S  S  S
--------------------------------------------|
--------------------------------------------|
--------------------------------------------|
--------------------------------------------|
--------------------------------------------|
--------------------------------------------|
--2h-4-4--4--L-4--4--4--L-4--4--4--4--4--4--|


       PM PM   PM PM PM
  S  S S  S  S S  S  S  S S S S S S E
---------------------------------------|
---------------------------------------|
---------------------------------------|
---------------------------------------|
---------------------------------------|
------------------------------6-7-6----|
--2h-4-4--4--L-4--4--4--5-4-5-------8--|


       PM PM   PM PM PM   PM PM PM PM PM PM
  S  S S  S  S S  S  S  S E  S  S  S  S  S
--------------------------------------------|
--------------------------------------------|
--------------------------------------------|
--------------------------------------------|
--------------------------------------------|
--------------------------------------------|
--2h-4-4--4--L-4--4--4--L-4--4--4--4--4--4--|


       PM PM PM PM      PM PM PM PM      PM P
  S  S S  S  S  S  S  S S  S  S  S  S  S S  S
----------------------------------------------|
----------------------------------------------|
----------------------------------------------|
----------------------------------------------|
----------------------------------------------|
----------------------------------------------|
--4s-5-5--5--5--5--5s-2-2--2--2--2--2s-5-5--5-|


       PM PM   PM PM PM   PM PM PM PM PM PM
  S  S S  S  S S  S  S  S E  S  S  S  S  S
--------------------------------------------|
--------------------------------------------|
--------------------------------------------|
--------------------------------------------|
--------------------------------------------|
--------------------------------------------|
--2h-4-4--4--L-4--4--4--L-4--4--4--4--4--4--|


       PM PM   PM PM PM
  S  S S  S  S S  S  S  S S S S S S E
---------------------------------------|
---------------------------------------|
---------------------------------------|
---------------------------------------|
---------------------------------------|
------------------------------6-7-6----|
--2h-4-4--4--L-4--4--4--5-4-5-------8--|


  H        H           H        Q    E  E
--------------------|----------------------|
--------------------|----------------------|
--------------------|----------------------|
-----------5--------|-----------8----8-----|
--6--------5--------|--2--------8----8-----|
--6--------3--------|--2--------6----6-----|
--4-----------------|--0-------------------|


  PM PM PM PM PM   PM PM PM PM PM
  S  S  S  S  Q    S  S  S  S  Q
------------------------------------|
------------------------------------|
------------------------------------|
------------------------------------|
------------------------------------|
------------------------------------|
--4--4--4--4--4----4--4--4--4--4----|


  PM PM PM PM PM
  S  S  S  S  Q    Q    Q
-----------------------------|
-----------------------------|
-----------------------------|
-----------------------------|
-------------------7----7----|
-------------------7----7----|
--4--4--4--4--4----5----5----|


  PM PM PM PM PM   PM PM PM PM PM
  S  S  S  S  Q    S  S  S  S  Q
------------------------------------|
------------------------------------|
------------------------------------|
------------------------------------|
------------------------------------|
------------------------------------|
--4--4--4--4--4----4--4--4--4--4----|


  PM PM PM PM PM PM
  S  S  S  S  E  E  Q    Q
------------------------------|
------------------------------|
------------------------------|
--------------------5----4----|
--------------------5----4----|
--------------------3----2----|
--5--5--5--5--5--5------------|


  W                   W
-------------------|-------------------|
-------------------|-------------------|
-------------------|-------------------|
--2----------------|-------------------|
--2----------------|--5----------------|
--0----------------|--5----------------|
-------------------|--3----------------|


  W                   W
-------------------|-------------------|
-------------------|-------------------|
-------------------|-------------------|
--5----------------|--4----------------|
--5----------------|--4----------------|
--3----------------|--2----------------|
-------------------|-------------------|


  W                   W
-------------------|-------------------|
-------------------|-------------------|
-------------------|-------------------|
--2----------------|-------------------|
--2----------------|--2----------------|
--0----------------|--2----------------|
-------------------|--0----------------|


  H        E.  E.  E
----------------------|
----------------------|
----------------------|
--5-------------------|
--5-------------------|
--3--------3---2------|
-------------------3--|


                   PM PM
  H        Q    E  S  S
-------------------------|
-------------------------|
-------------------------|
-------------------------|
-------------------------|
-------------------------|
-------------------4--4--|


       PM PM   PM PM PM
  S  S S  S  S S  S  S  S S S S S S E
---------------------------------------|
---------------------------------------|
---------------------------------------|
---------------------------------------|
---------------------------------------|
------------------------------6-7-6----|
--2h-4-4--4--L-4--4--4--5-4-5-------8--|


  H        H           H        H
--------------------|--------------------|
--------------------|--------------------|
--------------------|--------------------|
--------------------|--4--------3--------|
--6--------5--------|--4--------3--------|
--6--------5--------|--2--------1--------|
--4--------3--------|--------------------|


       PM PM   PM PM PM   PM PM PM PM PM PM
  S  S S  S  S S  S  S  S E  S  S  S  S  S
--------------------------------------------|
--------------------------------------------|
--------------------------------------------|
--------------------------------------------|
--------------------------------------------|
--------------------------------------------|
--2h-4-4--4--L-4--4--4--L-4--4--4--4--4--4--|


       PM PM   PM PM PM
  S  S S  S  S S  S  S  S S S S S S E
---------------------------------------|
---------------------------------------|
---------------------------------------|
---------------------------------------|
---------------------------------------|
------------------------------6-7-6----|
--2h-4-4--4--L-4--4--4--5-4-5-------8--|


       PM PM   PM PM PM   PM PM PM PM PM PM
  S  S S  S  S S  S  S  S E  S  S  S  S  S
--------------------------------------------|
--------------------------------------------|
--------------------------------------------|
--------------------------------------------|
--------------------------------------------|
--------------------------------------------|
--2h-4-4--4--L-4--4--4--L-4--4--4--4--4--4--|


       PM PM PM PM      PM PM PM PM      PM P
  S  S S  S  S  S  S  S S  S  S  S  S  S S  S
----------------------------------------------|
----------------------------------------------|
----------------------------------------------|
----------------------------------------------|
----------------------------------------------|
----------------------------------------------|
--4s-5-5--5--5--5--5s-2-2--2--2--2--2s-5-5--5-|


       PM PM   PM PM PM   PM PM PM PM PM PM
  S  S S  S  S S  S  S  S E  S  S  S  S  S
--------------------------------------------|
--------------------------------------------|
--------------------------------------------|
--------------------------------------------|
--------------------------------------------|
--------------------------------------------|
--2h-4-4--4--L-4--4--4--L-4--4--4--4--4--4--|


       PM PM   PM PM PM
  S  S S  S  S S  S  S  S S S S S S E
---------------------------------------|
---------------------------------------|
---------------------------------------|
---------------------------------------|
---------------------------------------|
------------------------------6-7-6----|
--2h-4-4--4--L-4--4--4--5-4-5-------8--|


  H        H           H        Q    E  E
--------------------|----------------------|
--------------------|----------------------|
--------------------|----------------------|
-----------5--------|-----------8----8-----|
--6--------5--------|--2--------8----8-----|
--6--------3--------|--2--------6----6-----|
--4-----------------|--0-------------------|


  PM PM PM PM PM   PM PM PM PM PM
  S  S  S  S  Q    S  S  S  S  Q
------------------------------------|
------------------------------------|
------------------------------------|
------------------------------------|
------------------------------------|
------------------------------------|
--4--4--4--4--4----4--4--4--4--4----|


  PM PM PM PM PM
  S  S  S  S  Q    Q    Q
-----------------------------|
-----------------------------|
-----------------------------|
-----------------------------|
-------------------7----7----|
-------------------7----7----|
--4--4--4--4--4----5----5----|


  PM PM PM PM PM   PM PM PM PM PM
  S  S  S  S  Q    S  S  S  S  Q
------------------------------------|
------------------------------------|
------------------------------------|
------------------------------------|
------------------------------------|
------------------------------------|
--4--4--4--4--4----4--4--4--4--4----|


  PM PM PM PM PM PM
  S  S  S  S  E  E  Q    Q
------------------------------|
------------------------------|
------------------------------|
--------------------5----4----|
--------------------5----4----|
--------------------3----2----|
--5--5--5--5--5--5------------|


  W                   W
-------------------|-------------------|
-------------------|-------------------|
-------------------|-------------------|
--2----------------|-------------------|
--2----------------|--5----------------|
--0----------------|--5----------------|
-------------------|--3----------------|


  W                   W
-------------------|-------------------|
-------------------|-------------------|
-------------------|-------------------|
--5----------------|--4----------------|
--5----------------|--4----------------|
--3----------------|--2----------------|
-------------------|-------------------|


  W                   W
-------------------|-------------------|
-------------------|-------------------|
-------------------|-------------------|
--2----------------|-------------------|
--2----------------|--2----------------|
--0----------------|--2----------------|
-------------------|--0----------------|


  H        E.  E.  E     W
----------------------|-------------------|
----------------------|-------------------|
----------------------|-------------------|
--5-------------------|--2----------------|
--5-------------------|--2----------------|
--3--------3---2------|--0----------------|
-------------------3--|-------------------|


  W                   W
-------------------|-------------------|
-------------------|-------------------|
-------------------|-------------------|
-------------------|--5----------------|
--5----------------|--5----------------|
--5----------------|--3----------------|
--3----------------|-------------------|


  W                   W
-------------------|-------------------|
-------------------|-------------------|
-------------------|-------------------|
--4----------------|--2----------------|
--4----------------|--2----------------|
--2----------------|--0----------------|
-------------------|-------------------|


  W                   H        E.  E.  E
-------------------|----------------------|
-------------------|----------------------|
-------------------|----------------------|
-------------------|--5-------------------|
--2----------------|--5-------------------|
--2----------------|--3--------3---2------|
--0----------------|-------------------3--|


  PM PM PM        PM PM
  E  E  E  Q.     E  E
------------------------|
------------------------|
------------------------|
------------------------|
--2--2--2---------2--2--|
--0--0--0---------0--0--|
------------------------|


  PM PM PM     <
  E  S  E  E.  H
------------------------|
------------------------|
------------------------|
------------------------|
--2--2--2------4--------|
--0--0--0------4--------|
---------------2--------|


  PM PM PM PM PM PM PM PM PM PM PM PM PM PM P
  S  S  S  S  S  S  S  S  S  S  S  S  S  S  S
----------------------------------------------|
----------------------------------------------|
----------------------------------------------|
----------------------------------------------|
----------------------------------------------|
----------------------------------------------|
--1--1--1--1--1--1--1--1--1--1--1--1--1--1--1-|


  PM PM PM PM PM PM PM PM
  S  S  S  S  S  S  S  S  H
------------------------------------|
------------------------------------|
------------------------------------|
------------------------------------|
------------------------------------|
------------------------------------|
--1--1--1--1--1--1--1--1--5b--------|


  PM PM PM PM PM PM PM PM PM PM PM PM PM PM P
  S  S  S  S  S  S  S  S  S  S  S  S  S  S  S
----------------------------------------------|
----------------------------------------------|
----------------------------------------------|
----------------------------------------------|
----------------------------------------------|
----------------------------------------------|
--1--1--1--1--1--1--1--1--1--1--1--1--1--1--1-|


  E  E  E  E  E  E  E  E
--------------------------|
--------------------------|
--------------------------|
--------------------------|
--------------------------|
-----5--------4-----3-----|
--3--------6-----6-----4--|


  PM PM PM PM PM PM PM PM PM PM PM PM PM PM P
  S  S  S  S  S  S  S  S  S  S  S  S  S  S  S
----------------------------------------------|
----------------------------------------------|
----------------------------------------------|
----------------------------------------------|
----------------------------------------------|
----------------------------------------------|
--1--1--1--1--1--1--1--1--1--1--1--1--1--1--1-|


  PM PM PM PM PM PM PM PM
  S  S  S  S  S  S  S  S  H
------------------------------------|
------------------------------------|
------------------------------------|
------------------------------------|
------------------------------------|
------------------------------------|
--1--1--1--1--1--1--1--1--5b--------|


  E  E  E  E  E  E  E  E
--------------------------|
--------------------------|
--------------------------|
--------------------------|
--------------------------|
-----5--------4-----3-----|
--3--------6-----6-----4--|


  PM PM PM PM PM PM
  E  E  S  E  S  E  E  Q
----------------------------|-------|-------|
----------------------------|-------|-------|
----------------------------|-------|-------|
----------------------------|-------|-------|
----------------------------|-------|-------|
--4--4--4--4--4--4----------|-------|-------|
--2--2--2--2--2--2----------|-------|-------|


-------|-------|-------|-------|-------|
-------|-------|-------|-------|-------|
-------|-------|-------|-------|-------|
-------|-------|-------|-------|-------|
-------|-------|-------|-------|-------|
-------|-------|-------|-------|-------|
-------|-------|-------|-------|-------|


          PM PM PM PM PM
          S  S  E  E  E  H
-------|--------------------------|
-------|--------------------------|
-------|--------------------------|
-------|-----------------6--------|
-------|-----------------6--------|
-------|--4--4--4--4--4--4--------|
-------|--------------------------|


       PM PM
  Q    E  E  H
----------------------|
----------------------|
----------------------|
--2----------2--------|
--2----------2--------|
--0----0--0--0--------|
----------------------|


  PM PM PM PM PM
  S  S  E  E  E  H
--------------------------|
--------------------------|
--------------------------|
-----------------6--------|
-----------------6--------|
--4--4--4--4--4--4--------|
--------------------------|


  PM PM    PM PM
  E  E  E  E  E  E  Q
-------------------------|
-------------------------|
-------------------------|
-------------------------|
--------------------3----|
--3--3-----3--3-----3----|
--1--1-----1--1-----1----|


  PM PM PM PM PM
  S  S  E  E  E  H
--------------------------|
--------------------------|
--------------------------|
-----------------6--------|
-----------------6--------|
--4--4--4--4--4--4--------|
--------------------------|


       PM PM
  Q    E  E  H
----------------------|
----------------------|
----------------------|
--2----------2--------|
--2----------2--------|
--0----0--0--0--------|
----------------------|


  PM PM PM PM PM
  S  S  E  E  E  H
--------------------------|
--------------------------|
--------------------------|
-----------------4--------|
-----------------4--------|
--2--2--2--2--2--2--------|
--------------------------|


  H        H           W
--------------------|-------------------|
--------------------|-------------------|
--------------------|-------------------|
--------------------|-------------------|
--6--------7--------|--3----------------|
--6--------7--------|--3----------------|
--4--------5--------|--1----------------|


                  PM
  H        Q.     E     W
---------------------|-------------------|
---------------------|-------------------|
---------------------|-------------------|
---------------------|-------------------|
--L--------L---------|--3----------------|
--L--------L------3--|--3----------------|
--L--------L------1--|--1----------------|


  W                    W
--------------------|-------------------|
--------------------|-------------------|
--------------------|-------------------|
--------------------|-------------------|
--------------------|--3----------------|
--4~----------------|--3----------------|
--------------------|--1----------------|


               PM  PM
  H        E.  E.  E     W
----------------------|-------------------|
----------------------|-------------------|
----------------------|-------------------|
----------------------|-------------------|
--L--------L----------|--3----------------|
--L--------L---3---3--|--3----------------|
--L--------L---1---1--|--1----------------|


  W
--------------------|
--------------------|
--------------------|
--------------------|
--------------------|
--4~----------------|
--------------------|


  over G5
          PM       PM    PM
  E       E  E  E  E  E  E  E
-------------------------------|
-------------------------------|
-------------------------------|
-------------------------------|
--2----------2--5-----5-----2--|
----------3--------3-----3-----|
-------------------------------|


  over Ab5 (G#5)
                  PM       PM    PM
  E               E  E  E  E  E  E  E
---------------------------------------|
---------------------------------------|
---------------------------------------|
---------------------------------------|
--3------------------3--6-----6-----3--|
------------------4--------4-----4-----|
---------------------------------------|


  over G5
          PM       PM    PM
  E       E  E  E  E  E  E  E
-------------------------------|
-------------------------------|
-------------------------------|
-------------------------------|
--2----------2--5-----5-----5--|
----------3--------3-----3-----|
-------------------------------|


  over G5
          |--3--|         |--3--|
  E       S  S  S E  Q    S  S  S E  E
----------------------------------------|
----------------------------------------|
----------------------------------------|
----------------------------------------|
--6-------5h-6p-5-3--5----3h-5p-3-2-----|
-------------------------------------4--|
----------------------------------------|


  over G5
          PM       PM    PM
  E       E  E  E  E  E  E  E
-------------------------------|
-------------------------------|
-------------------------------|
-------------------------------|
--2----------2--5-----5-----2--|
----------3--------3-----3-----|
-------------------------------|


  over Ab5 (G#5)
                  PM       PM    PM
  E               E  E  E  E  E  E  E
---------------------------------------|
---------------------------------------|
---------------------------------------|
---------------------------------------|
--3------------------3--6-----6-----3--|
------------------4--------4-----4-----|
---------------------------------------|


  over G5
          PM       PM
  E       E  E  E  E  Q.
-----------------------------|
-----------------------------|
-----------------------------|
-----------------------------|
--2----------2--5-----5------|
----------3--------3---------|
-----------------------------|


     PM PM    PM PM    PM PM
  E  S  S  E  S  S  E  S  S  Q
----------------------------------|
----------------------------------|
----------------------------------|
----------------------------------|
--3--------1----------------------|
--------------------4--------3----|
-----1--1-----1--1-----1--1-------|


  PM PM PM PM PM PM PM PM PM PM PM PM PM PM P
  S  S  S  S  S  S  S  S  S  S  S  S  S  S  S
----------------------------------------------|
----------------------------------------------|
----------------------------------------------|
----------------------------------------------|
----------------------------------------------|
----------------------------------------------|
--1--1--1--1--1--1--1--1--1--1--1--1--1--1--1-|


  PM PM PM PM PM PM PM PM PM PM PM PM PM PM P
  S  S  S  S  S  S  S  S  S  S  S  S  S  S  S
----------------------------------------------|
----------------------------------------------|
----------------------------------------------|
----------------------------------------------|
----------------------------------------------|
--------------------------------------3--3--3-|
--1--1--1--1--3--3--3--3--4--4--4--4----------|


  PM PM PM PM PM PM PM PM PM PM PM PM PM PM P
  S  S  S  S  S  S  S  S  S  S  S  S  S  S  S
----------------------------------------------|
----------------------------------------------|
----------------------------------------------|
----------------------------------------------|
----------------------------------------------|
----------------------------------------------|
--1--1--1--1--1--1--1--1--1--1--1--1--1--1--1-|


     PM PM    PM PM    PM PM
  E  S  S  E  S  S  E  S  S  Q
----------------------------------|
----------------------------------|
----------------------------------|
----------------------------------|
--3--------1----------------------|
--------------------4--------3----|
-----1--1-----1--1-----1--1-------|


  PM PM PM PM PM PM PM PM PM
  S  S  S  S  S  S  S  S  Q    Q
------------------------------------|
------------------------------------|
------------------------------------|
------------------------------------|
------------------------------------|
------------------------------------|
--1--1--1--1--1--1--1--1--1---------|


  PM PM PM PM PM   PM PM PM PM PM
  S  S  S  S  Q    S  S  S  S  Q
------------------------------------|
------------------------------------|
------------------------------------|
------------------------------------|
------------------------------------|
------------------------------------|
--1--1--1--1--1----1--1--1--1--1----|


  PM PM PM PM PM PM PM PM PM PM PM PM PM PM P
  S  S  S  S  S  S  S  S  S  S  S  S  S  S  S
----------------------------------------------|
----------------------------------------------|
----------------------------------------------|
----------------------------------------------|
----------------------------------------------|
--------------------------------------3--3--3-|
--1--1--1--1--3--3--3--3--4--4--4--4----------|


                      PM PM   PM PM PM
  W                   E  Q    E  E  E  Q
-------------------|------------------------|
-------------------|------------------------|
-------------------|------------------------|
--6----------------|------------------------|
--6----------------|-------------------6----|
--4----------------|--6--6----6--6--6--6----|
-------------------|--4--4----4--4--4--4----|


  W
-------------------|
-------------------|
-------------------|
--8----------------|
--8----------------|
--6----------------|
-------------------|


       PM PM   PM PM PM   PM PM PM PM PM PM
  S  S S  S  S S  S  S  S E  S  S  S  S  S
--------------------------------------------|
--------------------------------------------|
--------------------------------------------|
--------------------------------------------|
--------------------------------------------|
--------------------------------------------|
--2h-4-4--4--L-4--4--4--L-4--4--4--4--4--4--|


       PM PM   PM PM PM
  S  S S  S  S S  S  S  S S S S S S E
---------------------------------------|
---------------------------------------|
---------------------------------------|
---------------------------------------|
---------------------------------------|
------------------------------6-7-6----|
--2h-4-4--4--L-4--4--4--5-4-5-------8--|


       PM PM   PM PM PM   PM PM PM PM PM PM
  S  S S  S  S S  S  S  S E  S  S  S  S  S
--------------------------------------------|
--------------------------------------------|
--------------------------------------------|
--------------------------------------------|
--------------------------------------------|
--------------------------------------------|
--2h-4-4--4--L-4--4--4--L-4--4--4--4--4--4--|


       PM PM PM PM      PM PM PM PM      PM P
  S  S S  S  S  S  S  S S  S  S  S  S  S S  S
----------------------------------------------|
----------------------------------------------|
----------------------------------------------|
----------------------------------------------|
----------------------------------------------|
----------------------------------------------|
--4s-5-5--5--5--5--5s-2-2--2--2--2--2s-5-5--5-|


       PM PM   PM PM PM   PM PM PM PM PM PM
  S  S S  S  S S  S  S  S E  S  S  S  S  S
--------------------------------------------|
--------------------------------------------|
--------------------------------------------|
--------------------------------------------|
--------------------------------------------|
--------------------------------------------|
--2h-4-4--4--L-4--4--4--L-4--4--4--4--4--4--|


       PM PM   PM PM PM
  S  S S  S  S S  S  S  S S S S S S E
---------------------------------------|
---------------------------------------|
---------------------------------------|
---------------------------------------|
---------------------------------------|
------------------------------6-7-6----|
--2h-4-4--4--L-4--4--4--5-4-5-------8--|


  H        H           H        E  E  E  E
--------------------|-----------------------|
--------------------|-----------------------|
--------------------|-----------------------|
-----------5--------|-----------8-----------|
--6--------5--------|--2--------8-----------|
--6--------3--------|--2--------6-----------|
--4-----------------|--0--------------------|


-------|-------|-------|-------|-------|
-------|-------|-------|-------|-------|
-------|-------|-------|-------|-------|
-------|-------|-------|-------|-------|
-------|-------|-------|-------|-------|
-------|-------|-------|-------|-------|
-------|-------|-------|-------|-------|


-------|-------|-------|-------|-------|
-------|-------|-------|-------|-------|
-------|-------|-------|-------|-------|
-------|-------|-------|-------|-------|
-------|-------|-------|-------|-------|
-------|-------|-------|-------|-------|
-------|-------|-------|-------|-------|


-------|-------|-------|-------|
-------|-------|-------|-------|
-------|-------|-------|-------|
-------|-------|-------|-------|
-------|-------|-------|-------|
-------|-------|-------|-------|
-------|-------|-------|-------|


  PM PM PM PM PM
  S  S  E  E  E  H
--------------------------|
--------------------------|
--------------------------|
-----------------6--------|
-----------------6--------|
--4--4--4--4--4--4--------|
--------------------------|


       PM PM
  Q    E  E  H
----------------------|
----------------------|
----------------------|
--2----------2--------|
--2----------2--------|
--0----0--0--0--------|
----------------------|


  PM PM PM PM PM
  S  S  E  E  E  H
--------------------------|
--------------------------|
--------------------------|
-----------------6--------|
-----------------6--------|
--4--4--4--4--4--4--------|
--------------------------|


  PM PM    PM PM
  E  E  E  E  E  E  Q
-------------------------|
-------------------------|
-------------------------|
-------------------------|
--------------------3----|
--3--3-----3--3-----3----|
--1--1-----1--1-----1----|


  PM PM PM PM PM
  S  S  E  E  E  H
--------------------------|
--------------------------|
--------------------------|
-----------------6--------|
-----------------6--------|
--4--4--4--4--4--4--------|
--------------------------|


       PM PM
  Q    E  E  H
----------------------|
----------------------|
----------------------|
--2----------2--------|
--2----------2--------|
--0----0--0--0--------|
----------------------|


  PM PM PM PM PM
  S  S  E  E  E  H
--------------------------|
--------------------------|
--------------------------|
-----------------4--------|
-----------------4--------|
--2--2--2--2--2--2--------|
--------------------------|


  H        H
--------------------|
--------------------|
--------------------|
--------------------|
--6--------7--------|
--6--------7--------|
--4--------5--------|


  PM PM PM PM PM
  S  S  E  E  E  H
--------------------------|
--------------------------|
--------------------------|
-----------------6--------|
-----------------6--------|
--4--4--4--4--4--4--------|
--------------------------|


       PM PM
  Q    E  E  H
----------------------|
----------------------|
----------------------|
--2----------2--------|
--2----------2--------|
--0----0--0--0--------|
----------------------|


  PM PM PM PM PM
  S  S  E  E  E  H
--------------------------|
--------------------------|
--------------------------|
-----------------6--------|
-----------------6--------|
--4--4--4--4--4--4--------|
--------------------------|


  PM PM    PM PM
  E  E  E  E  E  E  Q
-------------------------|
-------------------------|
-------------------------|
-------------------------|
--------------------3----|
--3--3-----3--3-----3----|
--1--1-----1--1-----1----|


  PM PM PM PM PM
  S  S  E  E  E  H
--------------------------|
--------------------------|
--------------------------|
-----------------6--------|
-----------------6--------|
--4--4--4--4--4--4--------|
--------------------------|


       PM PM
  Q    E  E  H
----------------------|
----------------------|
----------------------|
--2----------2--------|
--2----------2--------|
--0----0--0--0--------|
----------------------|


  PM PM PM PM PM
  S  S  E  E  E  H
--------------------------|
--------------------------|
--------------------------|
-----------------6--------|
-----------------6--------|
--4--4--4--4--4--4--------|
--------------------------|


  H        H
--------------------|
--------------------|
--------------------|
--4--------2--------|
--4--------2--------|
--2--------0--------|
--------------------|


  PM PM PM PM    PM PM PM PM    PM PM
  S  S  S  S  E  S  S  S  S  E  S  S  E
-----------------------------------------|
-----------------------------------------|
-----------------------------------------|
--------------6--------------6--------6--|
--------------6--------------6--------6--|
--4--4--4--4--4--4--4--4--4--4--4--4--4--|
-----------------------------------------|


  PM PM PM PM    PM PM PM PM    PM PM
  S  S  S  S  E  S  S  S  S  E  S  S  E
-----------------------------------------|
-----------------------------------------|
-----------------------------------------|
--------------2--------------2--------2--|
--------------2--------------2--------2--|
--0--0--0--0--0--0--0--0--0--0--0--0--0--|
-----------------------------------------|


  PM PM PM PM    PM PM PM PM    PM PM
  S  S  S  S  E  S  S  S  S  E  S  S  E
-----------------------------------------|
-----------------------------------------|
-----------------------------------------|
--------------6--------------6--------6--|
--------------6--------------6--------6--|
--4--4--4--4--4--4--4--4--4--4--4--4--4--|
-----------------------------------------|


  PM PM PM PM PM PM PM PM PM PM PM PM PM PM
  S  S  S  S  S  S  S  S  S  S  S  S  S  S  E
---------------------------------------------|
---------------------------------------------|
---------------------------------------------|
---------------------------------------------|
---------------------------------------------|
---------------------------------------------|
--1--1--1--1--1--1--1--1--1--1--1--1--1--1---|


  PM PM PM PM    PM PM PM PM    PM PM
  S  S  S  S  E  S  S  S  S  E  S  S  E
-----------------------------------------|
-----------------------------------------|
-----------------------------------------|
--------------6--------------6--------6--|
--------------6--------------6--------6--|
--4--4--4--4--4--4--4--4--4--4--4--4--4--|
-----------------------------------------|


  PM PM PM PM    PM PM PM PM    PM PM
  S  S  S  S  E  S  S  S  S  E  S  S  E
-----------------------------------------|
-----------------------------------------|
-----------------------------------------|
--------------2--------------2--------2--|
--------------2--------------2--------2--|
--0--0--0--0--0--0--0--0--0--0--0--0--0--|
-----------------------------------------|


  PM PM PM PM    PM PM PM PM    PM PM
  S  S  S  S  E  S  S  S  S  E  S  S  E
-----------------------------------------|
-----------------------------------------|
-----------------------------------------|
--------------4--------------4--------4--|
--------------4--------------4--------4--|
--2--2--2--2--2--2--2--2--2--2--2--2--2--|
-----------------------------------------|


  PM PM PM PM      PM PM PM PM
  S  S  S  S  Q    S  S  S  S  Q
------------------------------------|
------------------------------------|
------------------------------------|
------------------------------------|
--------------6----------------7----|
--------------6----------------7----|
--4--4--4--4--4----5--5--5--5--5----|


  PM PM PM PM    PM PM PM PM    PM PM
  S  S  S  S  E  S  S  S  S  E  S  S  E
-----------------------------------------|
-----------------------------------------|
-----------------------------------------|
--------------6--------------6--------6--|
--------------6--------------6--------6--|
--4--4--4--4--4--4--4--4--4--4--4--4--4--|
-----------------------------------------|


  PM PM PM PM    PM PM PM PM    PM PM
  S  S  S  S  E  S  S  S  S  E  S  S  E
-----------------------------------------|
-----------------------------------------|
-----------------------------------------|
--------------2--------------2--------2--|
--------------2--------------2--------2--|
--0--0--0--0--0--0--0--0--0--0--0--0--0--|
-----------------------------------------|


  PM PM PM PM    PM PM PM PM    PM PM
  S  S  S  S  E  S  S  S  S  E  S  S  E
-----------------------------------------|
-----------------------------------------|
-----------------------------------------|
--------------6--------------6--------6--|
--------------6--------------6--------6--|
--4--4--4--4--4--4--4--4--4--4--4--4--4--|
-----------------------------------------|


  PM PM PM PM PM PM PM PM PM PM PM PM PM PM
  S  S  S  S  S  S  S  S  S  S  S  S  S  S  E
---------------------------------------------|
---------------------------------------------|
---------------------------------------------|
---------------------------------------------|
---------------------------------------------|
---------------------------------------------|
--1--1--1--1--1--1--1--1--1--1--1--1--1--1---|


  PM PM PM PM    PM PM PM PM    PM PM
  S  S  S  S  E  S  S  S  S  E  S  S  E
-----------------------------------------|
-----------------------------------------|
-----------------------------------------|
--------------6--------------6--------6--|
--------------6--------------6--------6--|
--4--4--4--4--4--4--4--4--4--4--4--4--4--|
-----------------------------------------|


  PM PM PM PM    PM PM PM PM    PM PM
  S  S  S  S  E  S  S  S  S  E  S  S  E
-----------------------------------------|
-----------------------------------------|
-----------------------------------------|
--------------2--------------2--------2--|
--------------2--------------2--------2--|
--0--0--0--0--0--0--0--0--0--0--0--0--0--|
-----------------------------------------|


  PM PM PM PM    PM PM PM PM    PM PM
  S  S  S  S  E  S  S  S  S  E  S  S  E
-----------------------------------------|
-----------------------------------------|
-----------------------------------------|
--------------6--------------6--------6--|
--------------6--------------6--------6--|
--4--4--4--4--4--4--4--4--4--4--4--4--4--|
-----------------------------------------|


  PM PM PM PM      PM PM PM PM
  S  S  S  S  Q    S  S  S  S  Q
------------------------------------|
------------------------------------|
------------------------------------|
--------------4----------------2----|
--------------4----------------2----|
--2--2--2--2--2----0--0--0--0--0----|
------------------------------------|


  PM PM PM PM PM PM PM PM PM PM PM PM PM PM P
  S  S  S  S  S  S  S  S  S  S  S  S  S  S  S
----------------------------------------------|
----------------------------------------------|
----------------------------------------------|
----------------------------------------------|
--------------------------6--6--6--6----------|
--4--4--4--4--7--7--7--7--------------7--7--7-|
----------------------------------------------|


  PM PM PM PM PM PM PM PM PM PM PM PM PM PM P
  S  S  S  S  S  S  S  S  S  S  S  S  S  S  S
----------------------------------------------|
----------------------------------------------|
----------------------------------------------|
----------------------------------------------|
--7--7--7--7----------------------------------|
--------------7--7--7--7--6--6--6--6--7--7--7-|
----------------------------------------------|


  PM PM PM PM PM PM PM PM PM PM PM PM PM PM P
  S  S  S  S  S  S  S  S  S  S  S  S  S  S  S
----------------------------------------------|
----------------------------------------------|
----------------------------------------------|
----------------------------------------------|
--------------------------6--6--6--6----------|
--4--4--4--4--7--7--7--7--------------7--7--7-|
----------------------------------------------|


  PM PM PM PM PM PM PM PM PM PM PM PM PM PM P
  S  S  S  S  S  S  S  S  S  S  S  S  S  S  S
----------------------------------------------|
----------------------------------------------|
----------------------------------------------|
----------------------------------------------|
----------------------------------------------|
--------------3--3--3--3--2--2--2--2--3--3--3-|
--1--1--1--1----------------------------------|


  PM PM PM PM PM PM PM PM PM PM PM PM PM PM P
  S  S  S  S  S  S  S  S  S  S  S  S  S  S  S
----------------------------------------------|
----------------------------------------------|
----------------------------------------------|
----------------------------------------------|
--------------------------6--6--6--6----------|
--4--4--4--4--7--7--7--7--------------7--7--7-|
----------------------------------------------|


  PM PM PM PM PM PM PM PM PM PM PM PM PM PM P
  S  S  S  S  S  S  S  S  S  S  S  S  S  S  S
----------------------------------------------|
----------------------------------------------|
----------------------------------------------|
----------------------------------------------|
--7--7--7--7----------------------------------|
--------------7--7--7--7--6--6--6--6--7--7--7-|
----------------------------------------------|


  PM PM PM PM PM PM PM PM PM PM PM PM PM PM P
  S  S  S  S  S  S  S  S  S  S  S  S  S  S  S
----------------------------------------------|
----------------------------------------------|
----------------------------------------------|
----------------------------------------------|
--------------------------4--4--4--4----------|
--2--2--2--2--6--6--6--6--------------6--6--6-|
----------------------------------------------|


  PM PM PM PM PM PM PM PM PM PM PM PM PM PM P
  S  S  S  S  S  S  S  S  S  S  S  S  S  S  S
----------------------------------------------|
----------------------------------------------|
----------------------------------------------|
----------------------------------------------|
----------------------------------------------|
--------------------------4--4--4--4----------|
--4--4--4--4--7--7--7--7--------------5--5--5-|


  PM PM PM PM PM PM PM PM PM PM PM PM PM PM P
  S  S  S  S  S  S  S  S  S  S  S  S  S  S  S
----------------------------------------------|
----------------------------------------------|
----------------------------------------------|
----------------------------------------------|
--------------------------6--6--6--6----------|
--4--4--4--4--7--7--7--7--------------7--7--7-|
----------------------------------------------|


  PM PM PM PM PM PM PM PM PM PM PM PM PM PM P
  S  S  S  S  S  S  S  S  S  S  S  S  S  S  S
----------------------------------------------|
----------------------------------------------|
----------------------------------------------|
----------------------------------------------|
--7--7--7--7----------------------------------|
--------------7--7--7--7--6--6--6--6--7--7--7-|
----------------------------------------------|


  PM PM PM PM PM PM PM PM PM PM PM PM PM PM P
  S  S  S  S  S  S  S  S  S  S  S  S  S  S  S
----------------------------------------------|
----------------------------------------------|
----------------------------------------------|
----------------------------------------------|
--------------------------6--6--6--6----------|
--4--4--4--4--7--7--7--7--------------7--7--7-|
----------------------------------------------|


  PM PM PM PM PM PM PM PM PM PM PM PM PM PM P
  S  S  S  S  S  S  S  S  S  S  S  S  S  S  S
----------------------------------------------|
----------------------------------------------|
----------------------------------------------|
----------------------------------------------|
----------------------------------------------|
--------------3--3--3--3--2--2--2--2--3--3--3-|
--1--1--1--1----------------------------------|


  PM PM PM PM PM PM PM PM PM PM PM PM PM PM P
  S  S  S  S  S  S  S  S  S  S  S  S  S  S  S
----------------------------------------------|
----------------------------------------------|
----------------------------------------------|
----------------------------------------------|
--------------------------6--6--6--6----------|
--4--4--4--4--7--7--7--7--------------7--7--7-|
----------------------------------------------|


  PM PM PM PM PM PM PM PM PM PM PM PM PM PM P
  S  S  S  S  S  S  S  S  S  S  S  S  S  S  S
----------------------------------------------|
----------------------------------------------|
----------------------------------------------|
----------------------------------------------|
--7--7--7--7----------------------------------|
--------------7--7--7--7--6--6--6--6--7--7--7-|
----------------------------------------------|


  PM PM PM PM PM PM PM PM PM PM PM PM PM PM P
  S  S  S  S  S  S  S  S  S  S  S  S  S  S  S
----------------------------------------------|
----------------------------------------------|
----------------------------------------------|
----------------------------------------------|
--------------------------6--6--6--6----------|
--4--4--4--4--7--7--7--7--------------7--7--7-|
----------------------------------------------|


  PM PM PM PM PM PM PM PM PM PM PM PM PM PM P
  S  S  S  S  S  S  S  S  S  S  S  S  S  S  S
----------------------------------------------|
----------------------------------------------|
----------------------------------------------|
----------------------------------------------|
----------------------------------------------|
--------------6--6--6--6--4--4--4--4--7--7--7-|
--7--7--7--7----------------------------------|


  H        Q.     E
---------------------|
---------------------|
---------------------|
--6--------L------6--|
--6--------L------6--|
--4--------L------4--|
---------------------|


  E  E   Q    Q    Q
------------------------||
------------------------||
------------------------||
--6--L\-----------------||
--6--L\-----------------||
--4--L\-----------------||
------------------------||
comments
print report bad tab
3 comments total.
0 reply
the_arod wrote on February 15 2010, 10:35 am

this is a tab ME and a friend made

this guy has no respect at all for other people's work

0 reply
08L1V10N wrote on February 16 2010, 03:33 am

Dude, I said it was not tabbed by me

0 reply
Dark Artist wrote on March 8 2010, 09:19 pm

If it's taken from your GP file arod (which he clearly states it is) you should take it as a compliment and not do childish bitchy things like give it a low rating. It's not like you wrote the ****ing song.

I want to post or [tab]
guest
You may want to rate the tab now too:
select rating
Please do not post tabs as comments. Select "correction" instead!