Oops, an error
Loading. Please wait.

Before You Accuse Me Tab

ver1
ver1

Whole song

Interactive

More versions @911Tabs.com
83,668 views 181 this week
10 commentsread comments
1 2 3 4 5
excellent!
x 10
Autoscroll
+/-
esc
set tempo
stop
Contributor
Hey! There's an official Ultimate Guitar app which is ideal
for learning songs when you're away from computer. Get the app
WARNING: You are trying to view
                                    content from Ultimate-Guitar.com
                                    in an unauthorized application,
                                    which is prohibited.

                                    Please use an official Ultimate
                                    Guitar Tabs application for iPhone,
                                    iPad or Android to access legitimate
                                    chords, guitar, bass, and drum tabs
                                    from Ultimate-Guitar.com database.

                                    Type "ultimate guitar tabs" in Apple
                                    App Store's or Android Market's
                                    search to find the application.
Transcribed by www.mikesguitarsite.co.uk

Words & Music by Ellas McDaniel aka Bo Diddley
Arranged by Eric Clapton


Gtr I (E A D G B E) - 'Eric Clapton - steel string acoustic (Martin)'

Intro
  Q=98(8=s8)
 4/4
  Gtr I
             |-3-|                      |-3--|
  H        a E E E e E +Q    e E   e E +Q    E e E Q
|--------|-3s4-4-4-4-4-(4)---4-4-|-3-3-(3)---3-2-2-2---|
|--------|-2s3-3-3-3-3-(3)---3-3-|-2-2-(2)---2-1-1-1---|
|--------|-3s4-4-4-4-4-(4)---4-4-|-3-3-(3)---3-2-2-2---|
|--------|-----------------------|---------------------|
|--------|-----------------------|---------------------|
|------0-|---0-----0----0--0-0-0-|-0----0--0---0---0-0-|
  Q.   E     Q     Q    E  E E E   Q    E  E   Q   E E


           |---3---|     |-3-|
  a    E E E     E E     E E E E E
|--------0-3b3.5-0-3b3.5-0---0--------|
|--------0-2b2.5-0-2b2.5-0-3-0--------|
|-0tr1-1---0-----0-0-----------2-0tr1-|
|-------------------------------------|
|-------------------------------------|
|------0------------------------------|
       Q   Q             H


                            Verse 1
               |-3--|                      |3|
  q   E   E   +E  E E E E    a e E Q   Q   E Q
|-0---------------------0-||-3s4-4---------------|
|-0---0---0---(0)-0-----0-||-2s3-3-----------0---|
|-1-----------------2-2-0-||-3s4-4-----------0---|
|-------------------------||---------------------|
|-----0-1---2-(2)-----2---||-------4-4-2-2-4---0-|
|-0-0-------------------0-||---0-0-0-0-0-0-0-----|
  E E E E   E +Q      E E      E E E E E E E   E
      |--3--|  |


                                   |--3--|
  H       Q   E E   H       Q      E E   E   E    E Q   H
|-----------------|------------------------|------0-------------|
|---------------0-|------------------------|------0-------------|
|---------------0-|---------0tr1-----2-----|--------------------|
|-2-2-4-2-2-2-4---|------------------2-----|-0tr1---------------|
|-0-0-0-0-0-0-0---|-2-2-4---2--------------|--------4-4-2---4-0-|
|-----------------|-0-0-0-0-0----0-0---0---|-0------0-0-0-0-0---|
  e E e E e E q     e E e E e    E e   E     q      e E e E e E


  H       Q   E E       Q   Q   Q   E E
|---------------3b3.5-|-0---------------|
|---------------2b2.5p|=0-------------2-|
|---------------------|---------------2-|
|-2-2-4---2---4-------|-----2-2-4-4-2---|
|-0-0-0-0-0-0-0-------|-0-0-0-0-0-0-0---|
|---------------------|-----------------|
  e E e E e E q         E E E E E E Q


                                 |-3-| |3|
  Q   E    E E     E E a E   E E E E E E Q   Q
|----------0-------0-------|-0-0---------0-------|
|-----0------3b3.5---------|-0-0-3-2-0-----------|
|-----0tr1-----------2-0h1p|=0---------2---------|
|--------------------------|---------------------|
|--------------------------|-----------------0-1-|
|-0-0-0----0-0-----0-0---0-|-0---0-----0---0-----|
  E E E    E E     E E   E   Q   Q     E   E E E


  Q   E E +E  E E E   E E E E E E E E
|-----2-------------|-----------------|
|-----0-------0-----|-----------------|
|-------2-(2)-2-2---|-2-------2-------|
|-------------------|-2---4---2-2-4---|
|-2-2-2----2----2-0-|-0-0-0-0-0-0-0-2-|
|-------------------|-----------------|
  E E Q    Q    E E


        |-3-| |-3-| |--3--|               |-3-|
  E E a E E E E E E E E   E   q   E   E   E E E E E
|---0-3s4-0-4-0-------------|-0-------------2---------||
|---0-2s3---3---3-0---------|-0---0---0---------0-----||
|-----3s4---4---4---2-0-----|-1---2-------2---2-2-0---||
|-------------------------2-|-------------------1-0---||
|---------------------------|---2-0-1---2-2-----2-----||
|-0-----0-----0-----0---0---|-0-----------------------||
  Q     Q     Q     E   E     E E E E   E Q     Q
                                  |--3--|


 Verse 2
                                                   |3-|
  E E E E E E E E   E E E E E E E E   H       Q    E  Q     E    E Q   H
|-----------------|-----------------|---------------------|------0-------------|
|-----------------|---------------0-|---------------------|------0-------------|
|-----------------|---------------0-|-----------------2---|-0tr1---------------|
|-----------------|-2-2-4-2-2-2-4---|-----------2-(2)-2---|-2------------------|
|-2-2-4-4-2-2-4-0-|-0-0-0-0-0-0-0---|-2-2-4-4-2-0-(0)-----|-2----2-4-4-2-2-4-0-|
|-0-0-0-0-0-0-0---|-----------------|-0-0-0-0-0---------0-|-0----0-0-0-0-0-0---|
                                      E E E E E E +E    E   E    E E E E E E E


  E E E E E E E E   H       Q   E E
|-----------------|---------------0-|
|-----------------|---------------0-|
|-----------------|---------------0h|
|-2-2-4-4-2-2-4-4-|-2-2-4-2-2-2-4---|
|-0-0-0-0-0-0-0-0-|-0-0-0-0-0-0-0---|
|-----------------|-----------------|
                    E E E E E E Q


        |-3-| |-3-|                |-3-|
  E E a E E E E E E a E E   E    E E E E E a E Q
|---0-3s4-0-4-0---0-----0-|------0-----------0-------|
|---0-2s3-3-3---3-------0-|-0------3-2-0-----0-------|
|-1---3s4-4-4---4---4s2---|-0tr1---------2-0h1-------|
|-------------------------|--------------------------|
|-------------------------|----------------------0-1-|
|-0-----0-----0-------0---|-0------0-----0-----0-----|
  Q     Q     Q       Q     Q      Q     Q     E E E
                                               |-3-|


       |3-|
  E E +E  Q E E Q     E E E E E E E E
|---2-(2)-----------|-----------------|
|---0-(0)---0-0-----|-----------------|
|---2-(2)-2---2-----|---------------0h|
|------1----1---1---|-2-2-4-4-2-2-4-0h|
|-2----2----2---2-0-|-0-0-0-0-0-0-0---|
|-------------------|-----------------|
  Q    Q    Q   E E


        |-3-|       |-3-|              |-3-|
  E E a E E E Q     E E E   E E E   E +E  +Q    +Q
|---0-3s4-0-4-0-----------|-0--------------------------||
|---0-2s3-3-3-0-----------|-0--------------------------||
|-1-0-3s4-4-4-------2-0-1-|-1---0---0-(0)-(0)---(0)----||
|-2-----------------2-----|----------------------------||
|-------------2-1-0-------|---2-2-2----2------2--2-----||
|-0-----0-----------0-----|-0-----------------------0--||
  Q     Q     E E E Q       E E E Q    E      E  E  E
              |-3-|             |3|


 Verse 3 + 5
  $
  E E E E E E E E   E E E E E E E E
|-----------------|---------------0-|
|-----------------|---------------0-|
|-----------------|-----------------|
|-----------------|-----------------|
|-2-2-4-4-2-2-4-0-|-2-2-4-4-2-2-4---|
|-0-0-0-0-0-0-0---|-0-0-0-0-0-0-0---|


    |-3-| |-3-| |-3-| |-3-|     |-3-| |-3-|
  a E E E E E E E E E E E E   a E E E e E E E E +E  E
|-2s4-0-4-4-4-4-4-4-4-4-4-4-|-3s4-4-4-3-3-3-4-4-(4)-----|
|-1s3-3-3-3-3-3-3-3-3-3-3-3-|-2s3-3-3-2-2-2-3-3-(3)-----|
|-2s4-4-4-4-4-4-4-4-4-4-4-4-|-3s4-4-4-3-3-3-4-4-(4)-----|
|---------------------------|---------------------------|
|---------------------------|-----------------------0---|
|---0-----0-----0-----0-----|---0-----0-----0----0------|
    Q     Q     Q     Q         Q     Q     Q    E  E


  E E E E E E E E   H       Q   E E
|-----------------|---------------0-|
|-----------------|---------------0-|
|-----------------|-----------------|
|-2-2-4-4-2-2-4-2-|-2-2-4-2-2-2-4---|
|-0-0-0-0-0-0-0-0-|-0-0-0-0-0-0-0---|
|-----------------|-----------------|
                    E E E E E E Q


        |--3--| |--3--| |--3--|       |-3-|
  E E a E E   E E E   E E E   E   E E E E E E a E E E
|---0-3s4-0---4-0---------------|-0-0-----------0------|
|---0-2s3-3---3---3-------------|-0-0-3-2-0-----0------|
|-----3s4-----4-------4-2-0h==1-|-----------2-0h1------|
|-------------------------------|-----------------2----|
|-2-----------------------------|-------------------0--|
|-0-0---0---0---0---0---0---0---|-0---0-----0-----0----|
  E E   E   E   E   E   E   E     Q   Q     Q     E E


  E E E E  E  E Q     E E E E E E E E
|-------------------|-----------------|
|---0-0-------0-0---|-----------------|
|-----2-2-(2)---2---|-----------------|
|-----1----1----1-0-|-2-2-4-4-2-2-4-2-|
|-2---2----2----2---|-0-0-0-0-0-0-0-0-|
|-------------------|-----------------|
  Q   Q    Q    E E


                                           To Coda
        |-3-|     |--3--|              |-3--|
  E E a E E E E E E E   E   E E E   E +E  E E E E
|---0-3s4-0-4-0-----------|-0-------------2-----0--||
|---0-2s3---3-3-0---------|-0---0---0-(0)-----0-0--||
|-----3s4-----4---2-0h==1-|-1---2---2-(2)---2------||
|-------------------------|------------------------||
|-2-----------------------|---2---2----2------2----||
|-0-----0-----0---0---0---|-0----------------------||
  Q     Q     Q   E   E     E E E Q    Q      Q
                                |3|


 Guitar Solo
    |--3--|  |--3--|  |--3--|
    E  E  E  E  E  E  E  E  E  E  E   E e Q   Q   E E
|-/10-10-10-10-10-10-10-10-10--9--9-|-7-------------0-|
|-/12-12-12-12-12-12-12-12-12-10-10-|-8-0-----------0-|
|-----------------------------------|---0-------------|
|-----------------------------------|-----4-4-2-2-4---|
|-----------------------------------|-0-0-0-0-0-0-0---|
|---0--------0--------0--------0----|-----------------|
    Q        Q        Q        Q      E E E E E E E E


      |--3--|  |--3--|  |--3--|  |--3--|       |--3--|  |--3--|
   a  E  E  E  E  E  E  E  E  E  E  E  E    a  E  E  E  E  E  E E E Q
|--9s10-10-10-10-10-10-10-10-10-10-10-10-|--9s10-10-10--9--9--9-7-0--------|
|-11s12-12-12-12-12-12-12-12-12-12-12-12-|-11s12-12-12-10-10-10-8-0--------|
|----------------------------------------|---------------------------------|
|----------------------------------------|--------------------------2-2----|
|----------------------------------------|--------------------------0-0----|
|-----0--------0--------0--------0-------|-----0--------0-------0----------|
      Q        Q        Q        Q             Q        Q       Q   E E


        |-3-| |-3-|           |-3-| |---3---|     |-3-|
  E a E E E E E E E E     E   E E E E     E E     E E E E E
|-------------7p6-5-------0-|-7p6-5-------5-------------0-0-|
|-------5---5-------8b8.5---|-------8b8.5---8b8.5-5---5-----|
|-2-4s6---6-----------------|-----------------------6-------|
|-2-------------------------|-------------------------------|
|-0---0-0-----0-----0-------|-0-----0-------------0-----0---|
|---------------------------|-------------------------------|
  E   E Q     Q     Q         Q     Q             Q     Q


        |--3--|                           |--3--|
  E a E E E   e E E +E  E   e E E E +E  E Q   a E
|-------4-4---4-4-4-(4)---|-4-4-3-4-(4)-4------------|
|---2s3-3-3---3-3-3-(3)---|-3-3-2-3-(3)--------------|
|---3s4-4-4---4-4-4-(4)---|-4-4-3-4-(4)-------7s8----|
|-------------------------|--------------------------|
|-------------------------|-----------------0--------|
|-0---0-0---0---0-0--0--0-|-0-0-0-0--0--0-4---6s7----|
  E   E E   E   E E  E  E   E E E E  E  E E E a E
                                          |--3--|


  |-3-| |-3-|                  |-3-| |-3-|     |-3-|
  E E E E E E  E E E S S   e E E E E E E E     E E E
|---0-0-9-8-7----0-------|-----7-6-5---5-------------|
|-7-----------10---------|-5-5-------8---8b8.5-5-----|
|--------------------4-6-|-----------------------5-6-|
|------------------------|---------------------------|
|------------------------|-0---0-----0---------0-----|
|-7-----7------7---7-----|---------------------------|
  Q     Q      Q   Q       Q   Q     Q         Q


      |-3-| |-3-|   |-3-|                  |3-|
  E E E E E E E E a E E E   E   E e   E   +E  Q   E E
|-0-0-4-0-4-0-------------|-0-------------------------||
|-5-0-3---3---3-----------|-0-----0---0---(0)-0-------||
|-----4---4-----4-3s2-0---|-1---------------------2-0-||
|-----------------------2-|---------------------------||
|-------------------------|-------0-1---2--2----2-2---||
|-0---0-----0-------0-----|-0-2s4---------------------||
  Q   Q     Q       Q       E a E E E   E  E    E E E
                                  |--3--|


 Verse 4
  E E E E E E E E   E E E E E E E E
|-----------------|-----------------|
|-----------------|-----------------|
|-----------------|---------------0h|
|-----------------|-2-2-4-4-2-2-4---|
|-2-2-4-4-2-2-4-0-|-0-0-0-0-0-0-0---|
|-0-0-0-0-0-0-0---|---------------0-|


        |--3--| |--3--|   |--3--|   |--3--| |--3--|
  E E a E E   E E E   E a E E   E   E E   E E E   E E    E Q
|---0-3s4-0---4-0-----------------|-0--------------------0-------|
|---0-2s3-5---3---3---------------|-0-3---2-0-----0------0-------|
|-1---3s4-------------4-3s2-0-----|-----------2-----0tr1-1-------|
|-------------------------------2-|--------------------------2---|
|---------------------------------|--------------------------0---|
|-0-0---0---0---0---0-----0---0---|-0---0---0---0---0----0-0-----|
  E E   E   E   E   E     E   E     E   E   E   E   E    E E E


  E E E E E E E E   H       Q   E   E
|-----------------|-------------------|
|-----------------|-------------------|
|-----------------|-----------------0h|
|-2-2-4-4-2-2-4-2-|-2-2-4-4-2-2-------|
|-0-0-0-0-0-0-0-0-|-0-0-0-0-0-0-0h2---|
|-----------------|-------------------|
                    E E E E E E E Q
                                |3|


        |--3--| |--3--|   |--3--|   |--3--| |--3--|
  E E a E E   E E E   E a E E   E   E E   E E E   E E    E E E
|---0-3s4-0---4-0-----------------|-0--------------------0------|
|---0-2s3-5---3---3---------------|-0-3---2-0-----0------0---0--|
|-1---3s4-------------4-3s2-0-----|-----------2-----0tr1-1---2--|
|-------------------------------2-|--------------------------1--|
|---------------------------------|--------------------------2--|
|-0-0---0---0---0---0-----0---0---|-0---0---0---0---0----0-0----|
  E E   E   E   E   E     E   E     E   E   E   E   E    E E E


   |--3---|
  +E  E   E E E E E +E  E   E E +Q    Q   E a E
|---------2---------------|---------------------|
|-----------0---0-0-(0)---|---------------------|
|-----2-------2---2-(2)---|-2-2-(2)---------0h1-|
|-(1)---------------------|-2-2--4--2-2-2-4-----|
|--2----2---2---2----2--2-|-0-0--0--0-0-0-0-----|
|-------------------------|-------------------0-|
   E    E   Q   Q    E  E   E E  E  E E E E   E


                                          D.S. al Coda
              |--3--| |-3-|                |3-|
  +E  E a E E E E   E E E E   E E E   E   +E  Q    E  E
|-----0---------------------|-0-------2---(2)-----------||
|-----0---------------------|-0---0---0---(0)------0----||
|-(1)---2s4-4-3-3---3-2-2-2-|-1---------------2---------||
|---------------------------|---------------------------||
|-------3s5-5-4---4---3-3-3-|---2-0-1---2-(2)---2-(2)-2-||
|--0------------------------|-0-----------------------0-||
   Q    a E E E   E   E E E   E E E E   E +E    E +E  E
                      |-3-|       |--3--|


 Outro - Guitar Solo
  &
      |--3--|  |--3--|  |--3--|  |--3--|
   a  E  E  E  E  E  E  E  E  E  E  E  E   E     E Q   Q   E E
|--9s10-10-10-10-10-10-10-10-10--9--9--9-|-7-----------------0-|
|-11s12-12-12-12-12-12-12-12-12-11-11-11-|-8b8.5-------------0-|
|----------------------------------------|---------------------|
|----------------------------------------|---------4-4-2-4-4---|
|----------------------------------------|-0-----0-0-0-0-0-0---|
|-----0--------0--------0--------0-------|-------------------0-|
      Q        Q        Q        Q         E     E E E E E E E


      |--3--|  |--3--|  |--3--|  |--3--|       |--3--|     |-3--|           |--3--|
   a  E  E  E  E  E  E  E  E  E  E  E  E    a  E  E  E  a  E E  E  E      E E a E E
|--9s10-10-10-10-10-10-10-10-10-10-10-10-|-----------0-------0-----0------0-------0---|
|-11s12-12-12-12-12-12-12-12-12-12-12-12-|-------15-17--------------------0-----------|
|----------------------------------------|-14s16-------16s14---14-12b12.5-----4s6-----|
|----------------------------------------|--------------------------------------------|
|----------------------------------------|--------------------------------------------|
|-----0--------0--------0--------0-------|-----0-----------0-------0--------0---------|
      Q        Q        Q        Q             Q           Q       Q        Q


  |-3-| |---3---|     |-3-|         |-3-| |-3-| |---3---|     |-3-|
  E E E E     E E     E E E E a E   E E E E E E E     E E     E E E
|-7p6-5-------5-----------0-------|-------7-6-5-------5-----------0-|
|-------8b8.5---8b8.5-5p0---0-----|-5---5-------8b8.5---8b8.5-5---5-|
|-----------------------------4s6-|---6-------------------------6---|
|---------------------------------|---------------------------------|
|-0-----0-------------0-----0-----|-0-----0-----0-------------0-----|
|---------------------------------|---------------------------------|
  Q     Q             Q     Q       Q     Q     Q             Q


      |-3-| |-3-|   |-3-|   |-3-| |-3-|   |--3--|
  E E E E E E E E a E E E   E E E E E E a S S E E E   E
|-0-0-4-0-4-0-------------|-0-------------------0------------|
|-5-3-3-------3-----------|-3-3-2-0---0----------------------|
|-6-4-4---------4-3-2-0---|---------2---0h1-0-1---2----------|
|-----------------------2-|----------------------------------|
|-------------------------|-----------------------0-1---2----|
|-0---0-----0-------0-----|-0-----0-------0------------------|
  Q   Q     Q       Q       Q     Q       Q       E E   E
                                                  |--3--|


  |-3-|
  E E E E E +E  E +Q      E a E E E E E E e
|-------2-2-(2)---------|---5s7-6-5---0-----|
|-0---0-0-0-(0)-0-(0)---|-----------8-----5-|
|---2-------------------|---------------6---|
|-----------------------|-2-----------------|
|-2-----2----2-----3--4-|-0-----------------|
|-----------------------|-------------------|
  Q     Q    Q     E  E


  E E     E    +E   E E E a E    E  E  E  E +H
|---7-----7----(7)--0---------|--0-----------------*|
|---8b8.5-8b9==(8)r---0-------|--0-----6--7-(7)----*|
|-----------------------2-0h1-|-(1)----6--7-(7)----*|
|-----------------------------|--------5--6-(6)----*|
|-----------------------------|-----6-(6)-7-(7)----*|
|-----------------------------|--------------------*|
comments
print report bad tab
10 comments total. Showing first comments.
0 reply
callingknopfler wrote on April 11 2005, 12:00 am

could you do the electric guitar part as well including the solos?

0 reply
Nickleback1192 wrote on September 13 2006, 08:25 pm

Yea include the Electric thats the part that I wanted

0 reply
kiwitaz4 wrote on June 28 2007, 09:42 pm

sensational tab well done

I want to post or [tab]
guest
You may want to rate the tab now too:
select rating
Please do not post tabs as comments. Select "correction" instead!